  0
SECTION
  2
HEADER
  9
$ACADVER
  1
AC1015
  9
$ACADMAINTVER
 70
     6
  9
$DWGCODEPAGE
  3
ANSI_1254
  9
$INSBASE
 10
0.0
 20
0.0
 30
0.0
  9
$EXTMIN
 10
0.0
 20
0.0
 30
0.0
  9
$EXTMAX
 10
279.4
 20
215.9
 30
0.0
  9
$LIMMIN
 10
0.0
 20
0.0
  9
$LIMMAX
 10
279.4
 20
215.9
  9
$ORTHOMODE
 70
     0
  9
$REGENMODE
 70
     1
  9
$FILLMODE
 70
     1
  9
$QTEXTMODE
 70
     0
  9
$MIRRTEXT
 70
     1
  9
$LTSCALE
 40
1.0
  9
$ATTMODE
 70
     1
  9
$TEXTSIZE
 40
3.5
  9
$TRACEWID
 40
1.0
  9
$TEXTSTYLE
  7
Standard
  9
$CLAYER
  8
0
  9
$CELTYPE
  6
ByLayer
  9
$CECOLOR
 62
   256
  9
$CELTSCALE
 40
1.0
  9
$DISPSILH
 70
     0
  9
$DIMSCALE
 40
1.0
  9
$DIMASZ
 40
3.5
  9
$DIMEXO
 40
1.0
  9
$DIMDLI
 40
3.75
  9
$DIMRND
 40
0.0
  9
$DIMDLE
 40
0.0
  9
$DIMEXE
 40
1.0
  9
$DIMTP
 40
0.0
  9
$DIMTM
 40
0.0
  9
$DIMTXT
 40
3.5
  9
$DIMCEN
 40
2.5
  9
$DIMTSZ
 40
0.0
  9
$DIMTOL
 70
     0
  9
$DIMLIM
 70
     0
  9
$DIMTIH
 70
     1
  9
$DIMTOH
 70
     1
  9
$DIMSE1
 70
     0
  9
$DIMSE2
 70
     0
  9
$DIMTAD
 70
     1
  9
$DIMZIN
 70
     0
  9
$DIMBLK
  1

  9
$DIMASO
 70
     1
  9
$DIMSHO
 70
     1
  9
$DIMPOST
  1

  9
$DIMAPOST
  1

  9
$DIMALT
 70
     0
  9
$DIMALTD
 70
     3
  9
$DIMALTF
 40
0.0393700787
  9
$DIMLFAC
 40
1.0
  9
$DIMTOFL
 70
     1
  9
$DIMTVP
 40
0.0
  9
$DIMTIX
 70
     0
  9
$DIMSOXD
 70
     0
  9
$DIMSAH
 70
     0
  9
$DIMBLK1
  1

  9
$DIMBLK2
  1

  9
$DIMSTYLE
  2
ISO-25
  9
$DIMCLRD
 70
     0
  9
$DIMCLRE
 70
     0
  9
$DIMCLRT
 70
     0
  9
$DIMTFAC
 40
1.0
  9
$DIMGAP
 40
1.524
  9
$DIMJUST
 70
     0
  9
$DIMSD1
 70
     0
  9
$DIMSD2
 70
     0
  9
$DIMTOLJ
 70
     0
  9
$DIMTZIN
 70
     0
  9
$DIMALTZ
 70
     0
  9
$DIMALTTZ
 70
     0
  9
$DIMUPT
 70
     0
  9
$DIMDEC
 70
     2
  9
$DIMTDEC
 70
     2
  9
$DIMALTU
 70
     2
  9
$DIMALTTD
 70
     3
  9
$DIMTXSTY
  7
Standard
  9
$DIMAUNIT
 70
     0
  9
$DIMADEC
 70
     2
  9
$DIMALTRND
 40
0.0
  9
$DIMAZIN
 70
     0
  9
$DIMDSEP
 70
    44
  9
$DIMATFIT
 70
     3
  9
$DIMFRAC
 70
     0
  9
$DIMLDRBLK
  1

  9
$DIMLUNIT
 70
     2
  9
$DIMLWD
 70
    -2
  9
$DIMLWE
 70
    -2
  9
$DIMTMOVE
 70
     0
  9
$LUNITS
 70
     2
  9
$LUPREC
 70
     2
  9
$SKETCHINC
 40
1.0
  9
$FILLETRAD
 40
10.0
  9
$AUNITS
 70
     0
  9
$AUPREC
 70
     2
  9
$MENU
  1
.
  9
$ELEVATION
 40
0.0
  9
$PELEVATION
 40
0.0
  9
$THICKNESS
 40
0.0
  9
$LIMCHECK
 70
     0
  9
$CHAMFERA
 40
0.0
  9
$CHAMFERB
 40
0.0
  9
$CHAMFERC
 40
0.0
  9
$CHAMFERD
 40
0.0
  9
$SKPOLY
 70
     0
  9
$TDCREATE
 40
2459935.710535266
  9
$TDUCREATE
 40
2459935.585535266
  9
$TDUPDATE
 40
2459935.710535451
  9
$TDUUPDATE
 40
2459935.585535451
  9
$TDINDWG
 40
0.0000000116
  9
$TDUSRTIMER
 40
0.0000000116
  9
$USRTIMER
 70
     1
  9
$ANGBASE
 50
0.0
  9
$ANGDIR
 70
     0
  9
$PDMODE
 70
     0
  9
$PDSIZE
 40
-1.0
  9
$PLINEWID
 40
0.0
  9
$SPLFRAME
 70
     0
  9
$SPLINETYPE
 70
     6
  9
$SPLINESEGS
 70
     8
  9
$HANDSEED
  5
12A
  9
$SURFTAB1
 70
     6
  9
$SURFTAB2
 70
     6
  9
$SURFTYPE
 70
     6
  9
$SURFU
 70
     6
  9
$SURFV
 70
     6
  9
$UCSBASE
  2

  9
$UCSNAME
  2

  9
$UCSORG
 10
0.0
 20
0.0
 30
0.0
  9
$UCSXDIR
 10
1.0
 20
0.0
 30
0.0
  9
$UCSYDIR
 10
0.0
 20
1.0
 30
0.0
  9
$UCSORTHOREF
  2

  9
$UCSORTHOVIEW
 70
     0
  9
$UCSORGTOP
 10
0.0
 20
0.0
 30
0.0
  9
$UCSORGBOTTOM
 10
0.0
 20
0.0
 30
0.0
  9
$UCSORGLEFT
 10
0.0
 20
0.0
 30
0.0
  9
$UCSORGRIGHT
 10
0.0
 20
0.0
 30
0.0
  9
$UCSORGFRONT
 10
0.0
 20
0.0
 30
0.0
  9
$UCSORGBACK
 10
0.0
 20
0.0
 30
0.0
  9
$PUCSBASE
  2

  9
$PUCSNAME
  2

  9
$PUCSORG
 10
0.0
 20
0.0
 30
0.0
  9
$PUCSXDIR
 10
1.0
 20
0.0
 30
0.0
  9
$PUCSYDIR
 10
0.0
 20
1.0
 30
0.0
  9
$PUCSORTHOREF
  2

  9
$PUCSORTHOVIEW
 70
     0
  9
$PUCSORGTOP
 10
0.0
 20
0.0
 30
0.0
  9
$PUCSORGBOTTOM
 10
0.0
 20
0.0
 30
0.0
  9
$PUCSORGLEFT
 10
0.0
 20
0.0
 30
0.0
  9
$PUCSORGRIGHT
 10
0.0
 20
0.0
 30
0.0
  9
$PUCSORGFRONT
 10
0.0
 20
0.0
 30
0.0
  9
$PUCSORGBACK
 10
0.0
 20
0.0
 30
0.0
  9
$USERI1
 70
     0
  9
$USERI2
 70
     0
  9
$USERI3
 70
     0
  9
$USERI4
 70
     0
  9
$USERI5
 70
     0
  9
$USERR1
 40
0.0
  9
$USERR2
 40
0.0
  9
$USERR3
 40
0.0
  9
$USERR4
 40
0.0
  9
$USERR5
 40
0.0
  9
$WORLDVIEW
 70
     1
  9
$SHADEDGE
 70
     3
  9
$SHADEDIF
 70
    70
  9
$TILEMODE
 70
     1
  9
$MAXACTVP
 70
    64
  9
$PINSBASE
 10
0.0
 20
0.0
 30
0.0
  9
$PLIMCHECK
 70
     0
  9
$PEXTMIN
 10
1.0000000000E+20
 20
1.0000000000E+20
 30
1.0000000000E+20
  9
$PEXTMAX
 10
-1.0000000000E+20
 20
-1.0000000000E+20
 30
-1.0000000000E+20
  9
$PLIMMIN
 10
0.0
 20
0.0
  9
$PLIMMAX
 10
420.0
 20
297.0
  9
$UNITMODE
 70
     0
  9
$VISRETAIN
 70
     1
  9
$PLINEGEN
 70
     0
  9
$PSLTSCALE
 70
     1
  9
$TREEDEPTH
 70
  3020
  9
$CMLSTYLE
  2
Standard
  9
$CMLJUST
 70
     0
  9
$CMLSCALE
 40
20.0
  9
$PROXYGRAPHICS
 70
     1
  9
$MEASUREMENT
 70
     1
  9
$CELWEIGHT
370
    -1
  9
$ENDCAPS
280
     0
  9
$JOINSTYLE
280
     0
  9
$LWDISPLAY
290
     1
  9
$INSUNITS
 70
     4
  9
$HYPERLINKBASE
  1

  9
$STYLESHEET
  1

  9
$XEDIT
290
     1
  9
$CEPSNTYPE
380
     0
  9
$PSTYLEMODE
290
     1
  9
$FINGERPRINTGUID
  2
{8662d2ec-3a86-4edb-9164-48c7c0ee6d73}
  9
$VERSIONGUID
  2
{FAEB1C32-E019-11D5-929B-00C0DF256EC4}
  9
$EXTNAMES
290
     1
  9
$PSVPSCALE
 40
0.0
  9
$OLESTARTUP
290
     0
  0
ENDSEC
  0
SECTION
  2
CLASSES
  0
CLASS
  1
ACDBDICTIONARYWDFLT
  2
AcDbDictionaryWithDefault
  3
ObjectDBX Classes
 90
        0
280
     0
281
     0
  0
CLASS
  1
VISUALSTYLE
  2
AcDbVisualStyle
  3
ObjectDBX Classes
 90
     4095
280
     0
281
     0
  0
CLASS
  1
MATERIAL
  2
AcDbMaterial
  3
ObjectDBX Classes
 90
     1153
280
     0
281
     0
  0
CLASS
  1
SCALE
  2
AcDbScale
  3
ObjectDBX Classes
 90
     1153
280
     0
281
     0
  0
CLASS
  1
TABLESTYLE
  2
AcDbTableStyle
  3
ObjectDBX Classes
 90
     4095
280
     0
281
     0
  0
CLASS
  1
MLEADERSTYLE
  2
AcDbMLeaderStyle
  3
ACDB_MLEADERSTYLE_CLASS
 90
     4095
280
     0
281
     0
  0
CLASS
  1
SUN
  2
AcDbSun
  3
SCENEOE
 90
     1153
280
     0
281
     0
  0
CLASS
  1
ACDBPLACEHOLDER
  2
AcDbPlaceHolder
  3
ObjectDBX Classes
 90
        0
280
     0
281
     0
  0
CLASS
  1
LAYOUT
  2
AcDbLayout
  3
ObjectDBX Classes
 90
        0
280
     0
281
     0
  0
ENDSEC
  0
SECTION
  2
TABLES
  0
TABLE
  2
VPORT
  5
8
330
0
100
AcDbSymbolTable
 70
     1
  0
VPORT
  5
29
330
8
100
AcDbSymbolTableRecord
100
AcDbViewportTableRecord
  2
*Active
 70
     0
 10
0.0
 20
0.0
 11
1.0
 21
1.0
 12
139.7
 22
107.95
 13
0.0
 23
0.0
 14
10.0
 24
10.0
 15
10.0
 25
10.0
 16
0.0
 26
0.0
 36
1.0
 17
0.0
 27
0.0
 37
0.0
 40
215.9
 41
1.2941176471
 42
50.0
 43
0.0
 44
0.0
 50
0.0
 51
0.0
 71
     0
 72
  2000
 73
     1
 74
     3
 75
     0
 76
     0
 77
     0
 78
     0
281
     0
 65
     1
110
0.0
120
0.0
130
0.0
111
1.0
121
0.0
131
0.0
112
0.0
122
1.0
132
0.0
 79
     0
146
0.0
  0
ENDTAB
  0
TABLE
  2
LTYPE
  5
5
330
0
100
AcDbSymbolTable
 70
     6
  0
LTYPE
  5
14
330
5
100
AcDbSymbolTableRecord
100
AcDbLinetypeTableRecord
  2
ByBlock
 70
     0
  3

 72
    65
 73
     0
 40
0.0
  0
LTYPE
  5
15
330
5
100
AcDbSymbolTableRecord
100
AcDbLinetypeTableRecord
  2
ByLayer
 70
     0
  3

 72
    65
 73
     0
 40
0.0
  0
LTYPE
  5
16
330
5
100
AcDbSymbolTableRecord
100
AcDbLinetypeTableRecord
  2
Continuous
 70
     0
  3
Solid line
 72
    65
 73
     0
 40
0.0
  0
LTYPE
  5
6E
330
5
100
AcDbSymbolTableRecord
100
AcDbLinetypeTableRecord
  2
HIDDEN
 70
     0
  3
Hidden __ __ __ __ __ __ __ __ __ __ __ __ __ __
 72
    65
 73
     2
 40
1.905
 49
1.27
 74
     0
 49
-0.635
 74
     0
  0
LTYPE
  5
6F
330
5
100
AcDbSymbolTableRecord
100
AcDbLinetypeTableRecord
  2
PHANTOM
 70
     0
  3
Phantom ______  __  __  ______  __  __  ______
 72
    65
 73
     6
 40
12.7
 49
6.35
 74
     0
 49
-1.27
 74
     0
 49
1.27
 74
     0
 49
-1.27
 74
     0
 49
1.27
 74
     0
 49
-1.27
 74
     0
  0
LTYPE
  5
70
330
5
100
AcDbSymbolTableRecord
100
AcDbLinetypeTableRecord
  2
CENTER
 70
     0
  3
Center ____ _ ____ _ ____ _ ____ _ ____ _ ____
 72
    65
 73
     4
 40
10.16
 49
6.35
 74
     0
 49
-1.27
 74
     0
 49
1.27
 74
     0
 49
-1.27
 74
     0
  0
LTYPE
  5
71
330
5
100
AcDbSymbolTableRecord
100
AcDbLinetypeTableRecord
  2
CENTERX2
 70
     0
  3
Center (2x) ________  __  ________  __  _____
 72
    65
 73
     4
 40
20.32
 49
12.7
 74
     0
 49
-2.54
 74
     0
 49
2.54
 74
     0
 49
-2.54
 74
     0
  0
LTYPE
  5
72
330
5
100
AcDbSymbolTableRecord
100
AcDbLinetypeTableRecord
  2
DOT2
 70
     0
  3
Dot (.5x) ........................................
 72
    65
 73
     2
 40
0.635
 49
0.0
 74
     0
 49
-0.635
 74
     0
  0
ENDTAB
  0
TABLE
  2
LAYER
  5
2
330
0
100
AcDbSymbolTable
 70
    17
  0
LAYER
  5
10
330
2
100
AcDbSymbolTableRecord
100
AcDbLayerTableRecord
  2
0
 70
     0
 62
     7
  6
Continuous
370
    -3
390
F
  0
LAYER
  5
73
330
2
100
AcDbSymbolTableRecord
100
AcDbLayerTableRecord
  2
FORMAT
 70
     0
 62
     7
  6
Continuous
370
    -3
390
F
  0
LAYER
  5
74
330
2
100
AcDbSymbolTableRecord
100
AcDbLayerTableRecord
  2
YARDIMCI_GEOMETRI
 70
     0
 62
    -6
  6
Continuous
290
     0
370
    -3
390
F
  0
LAYER
  5
75
330
2
100
AcDbSymbolTableRecord
100
AcDbLayerTableRecord
  2
SAYFA_CERCEVESI
 70
     0
 62
     7
  6
Continuous
370
    25
390
F
  0
LAYER
  5
76
330
2
100
AcDbSymbolTableRecord
100
AcDbLayerTableRecord
  2
ANTET
 70
     0
 62
     7
  6
Continuous
370
    -3
390
F
  0
LAYER
  5
77
330
2
100
AcDbSymbolTableRecord
100
AcDbLayerTableRecord
  2
OLCU
 70
     0
 62
   150
  6
Continuous
370
    -3
390
F
  0
LAYER
  5
78
330
2
100
AcDbSymbolTableRecord
100
AcDbLayerTableRecord
  2
METIN
 70
     0
 62
    96
  6
Continuous
370
    -3
390
F
  0
LAYER
  5
79
330
2
100
AcDbSymbolTableRecord
100
AcDbLayerTableRecord
  2
BALON
 70
     0
 62
     5
  6
Continuous
370
    -3
390
F
  0
LAYER
  5
7A
330
2
100
AcDbSymbolTableRecord
100
AcDbLayerTableRecord
  2
VURGU
 70
     0
 62
     7
  6
Continuous
370
    -3
390
F
  0
LAYER
  5
7B
330
2
100
AcDbSymbolTableRecord
100
AcDbLayerTableRecord
  2
SILIK
 70
     0
 62
     7
  6
Continuous
370
    -3
390
F
  0
LAYER
  5
7C
330
2
100
AcDbSymbolTableRecord
100
AcDbLayerTableRecord
  2
MODEL
 70
     0
 62
     7
  6
Continuous
370
    -3
390
F
  0
LAYER
  5
7D
330
2
100
AcDbSymbolTableRecord
100
AcDbLayerTableRecord
  2
DETAYLANDıRMA
 70
     0
 62
   190
  6
Continuous
370
    -3
390
F
  0
LAYER
  5
7E
330
2
100
AcDbSymbolTableRecord
100
AcDbLayerTableRecord
  2
TOLERANS
 70
     0
 62
   230
  6
Continuous
370
    -3
390
F
  0
LAYER
  5
7F
330
2
100
AcDbSymbolTableRecord
100
AcDbLayerTableRecord
  2
MERKEZ_CIZGILERI
 70
     0
 62
    30
  6
Continuous
370
    -3
390
F
  0
LAYER
  5
80
330
2
100
AcDbSymbolTableRecord
100
AcDbLayerTableRecord
  2
KESIT-DETAY_CIZGILERI
 70
     0
 62
     7
  6
Continuous
370
    -3
390
F
  0
LAYER
  5
81
330
2
100
AcDbSymbolTableRecord
100
AcDbLayerTableRecord
  2
\U+041E\U+0421\U+0415\U+0412\U+042B\U+0415
 70
     0
 62
     7
  6
Continuous
370
    -3
390
F
  0
LAYER
  5
82
330
2
100
AcDbSymbolTableRecord
100
AcDbLayerTableRecord
  2
\U+0412\U+041E\U+0414\U+042F\U+041D\U+042B\U+0415_\U+0417\U+041D\U+0410\U+041A\U+0418
 70
     0
 62
    11
  6
Continuous
370
    -3
390
F
  0
ENDTAB
  0
TABLE
  2
STYLE
  5
3
330
0
100
AcDbSymbolTable
 70
     1
  0
STYLE
  5
11
330
3
100
AcDbSymbolTableRecord
100
AcDbTextStyleTableRecord
  2
Standard
 70
     0
 40
0.0
 41
1.0
 50
0.0
 71
     0
 42
3.5
  3
txt
  4

  0
ENDTAB
  0
TABLE
  2
VIEW
  5
6
330
0
100
AcDbSymbolTable
 70
     0
  0
ENDTAB
  0
TABLE
  2
UCS
  5
7
330
0
100
AcDbSymbolTable
 70
     0
  0
ENDTAB
  0
TABLE
  2
APPID
  5
9
330
0
100
AcDbSymbolTable
 70
     1
  0
APPID
  5
12
330
9
100
AcDbSymbolTableRecord
100
AcDbRegAppTableRecord
  2
ACAD
 70
     0
  0
ENDTAB
  0
TABLE
  2
DIMSTYLE
  5
A
330
0
100
AcDbSymbolTable
 70
     1
100
AcDbDimStyleTable
  0
DIMSTYLE
105
27
330
A
100
AcDbSymbolTableRecord
100
AcDbDimStyleTableRecord
  2
ISO-25
 70
     0
 41
2.5
 42
0.625
 43
3.75
 44
1.25
 73
     0
 74
     0
 77
     1
 78
     8
140
2.5
141
2.5
143
0.0393700787
147
0.625
171
     3
172
     1
178
     0
271
     2
272
     2
274
     3
278
    44
283
     0
284
     8
340
11
  0
ENDTAB
  0
TABLE
  2
BLOCK_RECORD
  5
1
330
0
100
AcDbSymbolTable
 70
     4
  0
BLOCK_RECORD
  5
1F
330
1
100
AcDbSymbolTableRecord
100
AcDbBlockTableRecord
  2
*Model_Space
340
22
  0
BLOCK_RECORD
  5
1B
330
1
100
AcDbSymbolTableRecord
100
AcDbBlockTableRecord
  2
*Paper_Space
340
1E
  0
BLOCK_RECORD
  5
23
330
1
100
AcDbSymbolTableRecord
100
AcDbBlockTableRecord
  2
*Paper_Space0
340
26
  0
BLOCK_RECORD
  5
93
330
1
100
AcDbSymbolTableRecord
100
AcDbBlockTableRecord
  2
SW_CENTERMARKSYMBOL_0
340
0
102
{BLKREFS
331
9E
102
}
  0
BLOCK_RECORD
  5
E9
330
1
100
AcDbSymbolTableRecord
100
AcDbBlockTableRecord
  2
SW_CENTERMARKSYMBOL_1
340
0
102
{BLKREFS
331
F4
102
}
  0
BLOCK_RECORD
  5
F5
330
1
100
AcDbSymbolTableRecord
100
AcDbBlockTableRecord
  2
SW_CENTERMARKSYMBOL_2
340
0
102
{BLKREFS
331
100
102
}
  0
ENDTAB
  0
ENDSEC
  0
SECTION
  2
BLOCKS
  0
BLOCK
  5
20
330
1F
100
AcDbEntity
  8
0
100
AcDbBlockBegin
  2
*Model_Space
 70
     0
 10
0.0
 20
0.0
 30
0.0
  3
*Model_Space
  1

  0
ENDBLK
  5
21
330
1F
100
AcDbEntity
  8
0
100
AcDbBlockEnd
  0
BLOCK
  5
1C
330
1B
100
AcDbEntity
 67
     1
  8
0
100
AcDbBlockBegin
  2
*Paper_Space
 70
     0
 10
0.0
 20
0.0
 30
0.0
  3
*Paper_Space
  1

  0
ENDBLK
  5
1D
330
1B
100
AcDbEntity
 67
     1
  8
0
100
AcDbBlockEnd
  0
BLOCK
  5
24
330
23
100
AcDbEntity
  8
0
100
AcDbBlockBegin
  2
*Paper_Space0
 70
     0
 10
0.0
 20
0.0
 30
0.0
  3
*Paper_Space0
  1

  0
ENDBLK
  5
25
330
23
100
AcDbEntity
  8
0
100
AcDbBlockEnd
  0
BLOCK
  5
94
330
93
100
AcDbEntity
  8
0
100
AcDbBlockBegin
  2
SW_CENTERMARKSYMBOL_0
 70
     0
 10
0.0
 20
0.0
 30
0.0
  3
SW_CENTERMARKSYMBOL_0
  1

  0
LINE
  5
96
330
93
100
AcDbEntity
  8
FORMAT
 62
     0
100
AcDbLine
 10
0.0
 20
0.0
 30
0.0
 11
0.0
 21
2.5
 31
0.0
  0
LINE
  5
97
330
93
100
AcDbEntity
  8
FORMAT
 62
     0
100
AcDbLine
 10
0.0
 20
0.0
 30
0.0
 11
-2.5
 21
0.0
 31
0.0
  0
LINE
  5
98
330
93
100
AcDbEntity
  8
FORMAT
 62
     0
100
AcDbLine
 10
0.0
 20
0.0
 30
0.0
 11
0.0
 21
-2.5
 31
0.0
  0
LINE
  5
99
330
93
100
AcDbEntity
  8
FORMAT
 62
     0
100
AcDbLine
 10
0.0
 20
0.0
 30
0.0
 11
2.5
 21
0.0
 31
0.0
  0
LINE
  5
9A
330
93
100
AcDbEntity
  8
FORMAT
 62
     0
100
AcDbLine
 10
0.0
 20
5.0
 30
0.0
 11
0.0
 21
452.5
 31
0.0
  0
LINE
  5
9B
330
93
100
AcDbEntity
  8
FORMAT
 62
     0
100
AcDbLine
 10
-5.0
 20
0.0
 30
0.0
 11
-452.5
 21
0.0
 31
0.0
  0
LINE
  5
9C
330
93
100
AcDbEntity
  8
FORMAT
 62
     0
100
AcDbLine
 10
0.0
 20
-5.0
 30
0.0
 11
0.0
 21
-452.5
 31
0.0
  0
LINE
  5
9D
330
93
100
AcDbEntity
  8
FORMAT
 62
     0
100
AcDbLine
 10
5.0
 20
0.0
 30
0.0
 11
452.5
 21
0.0
 31
0.0
  0
ENDBLK
  5
95
330
93
100
AcDbEntity
  8
0
100
AcDbBlockEnd
  0
BLOCK
  5
EA
330
E9
100
AcDbEntity
  8
0
100
AcDbBlockBegin
  2
SW_CENTERMARKSYMBOL_1
 70
     0
 10
0.0
 20
0.0
 30
0.0
  3
SW_CENTERMARKSYMBOL_1
  1

  0
LINE
  5
EC
330
E9
100
AcDbEntity
  8
FORMAT
 62
     0
100
AcDbLine
 10
0.0
 20
0.0
 30
0.0
 11
0.0
 21
2.5
 31
0.0
  0
LINE
  5
ED
330
E9
100
AcDbEntity
  8
FORMAT
 62
     0
100
AcDbLine
 10
0.0
 20
0.0
 30
0.0
 11
-2.5
 21
0.0
 31
0.0
  0
LINE
  5
EE
330
E9
100
AcDbEntity
  8
FORMAT
 62
     0
100
AcDbLine
 10
0.0
 20
0.0
 30
0.0
 11
0.0
 21
-2.5
 31
0.0
  0
LINE
  5
EF
330
E9
100
AcDbEntity
  8
FORMAT
 62
     0
100
AcDbLine
 10
0.0
 20
0.0
 30
0.0
 11
2.5
 21
0.0
 31
0.0
  0
LINE
  5
F0
330
E9
100
AcDbEntity
  8
FORMAT
 62
     0
100
AcDbLine
 10
0.0
 20
5.0
 30
0.0
 11
0.0
 21
9.5
 31
0.0
  0
LINE
  5
F1
330
E9
100
AcDbEntity
  8
FORMAT
 62
     0
100
AcDbLine
 10
-5.0
 20
0.0
 30
0.0
 11
-9.5
 21
0.0
 31
0.0
  0
LINE
  5
F2
330
E9
100
AcDbEntity
  8
FORMAT
 62
     0
100
AcDbLine
 10
0.0
 20
-5.0
 30
0.0
 11
0.0
 21
-9.5
 31
0.0
  0
LINE
  5
F3
330
E9
100
AcDbEntity
  8
FORMAT
 62
     0
100
AcDbLine
 10
5.0
 20
0.0
 30
0.0
 11
9.5
 21
0.0
 31
0.0
  0
ENDBLK
  5
EB
330
E9
100
AcDbEntity
  8
0
100
AcDbBlockEnd
  0
BLOCK
  5
F6
330
F5
100
AcDbEntity
  8
0
100
AcDbBlockBegin
  2
SW_CENTERMARKSYMBOL_2
 70
     0
 10
0.0
 20
0.0
 30
0.0
  3
SW_CENTERMARKSYMBOL_2
  1

  0
LINE
  5
F8
330
F5
100
AcDbEntity
  8
FORMAT
 62
     0
100
AcDbLine
 10
0.0
 20
0.0
 30
0.0
 11
0.0
 21
2.5
 31
0.0
  0
LINE
  5
F9
330
F5
100
AcDbEntity
  8
FORMAT
 62
     0
100
AcDbLine
 10
0.0
 20
0.0
 30
0.0
 11
-2.5
 21
0.0
 31
0.0
  0
LINE
  5
FA
330
F5
100
AcDbEntity
  8
FORMAT
 62
     0
100
AcDbLine
 10
0.0
 20
0.0
 30
0.0
 11
0.0
 21
-2.5
 31
0.0
  0
LINE
  5
FB
330
F5
100
AcDbEntity
  8
FORMAT
 62
     0
100
AcDbLine
 10
0.0
 20
0.0
 30
0.0
 11
2.5
 21
0.0
 31
0.0
  0
LINE
  5
FC
330
F5
100
AcDbEntity
  8
FORMAT
 62
     0
100
AcDbLine
 10
0.0
 20
5.0
 30
0.0
 11
0.0
 21
9.5
 31
0.0
  0
LINE
  5
FD
330
F5
100
AcDbEntity
  8
FORMAT
 62
     0
100
AcDbLine
 10
-5.0
 20
0.0
 30
0.0
 11
-9.5
 21
0.0
 31
0.0
  0
LINE
  5
FE
330
F5
100
AcDbEntity
  8
FORMAT
 62
     0
100
AcDbLine
 10
0.0
 20
-5.0
 30
0.0
 11
0.0
 21
-9.5
 31
0.0
  0
LINE
  5
FF
330
F5
100
AcDbEntity
  8
FORMAT
 62
     0
100
AcDbLine
 10
5.0
 20
0.0
 30
0.0
 11
9.5
 21
0.0
 31
0.0
  0
ENDBLK
  5
F7
330
F5
100
AcDbEntity
  8
0
100
AcDbBlockEnd
  0
ENDSEC
  0
SECTION
  2
ENTITIES
  0
LINE
  5
83
330
1F
100
AcDbEntity
  8
0
  6
Continuous
 62
     7
370
    25
100
AcDbLine
 10
102.6070913462
 20
651.7769881973
 30
0.0
 11
102.6070913462
 21
655.8949519231
 31
0.0
  0
LINE
  5
84
330
1F
100
AcDbEntity
  8
0
  6
Continuous
 62
     7
370
    25
100
AcDbLine
 10
88.6070913462
 20
655.8949519231
 30
0.0
 11
88.6070913462
 21
650.9048016463
 31
0.0
  0
LINE
  5
85
330
1F
100
AcDbEntity
  8
0
  6
Continuous
 62
     7
370
    25
100
AcDbLine
 10
172.6070913462
 20
650.9037199628
 30
0.0
 11
172.6070913462
 21
655.8949519231
 31
0.0
  0
LINE
  5
86
330
1F
100
AcDbEntity
  8
0
  6
Continuous
 62
     7
370
    25
100
AcDbLine
 10
158.6070913462
 20
655.8949519231
 30
0.0
 11
158.6070913462
 21
651.7794194441
 31
0.0
  0
CIRCLE
  5
87
330
1F
100
AcDbEntity
  8
0
  6
Continuous
 62
     7
370
    25
100
AcDbCircle
 10
130.6070913462
 20
95.8949519231
 30
0.0
 40
556.5
  0
ARC
  5
88
330
1F
100
AcDbEntity
  8
0
  6
Continuous
 62
     7
370
    25
100
AcDbCircle
 10
130.6070913462
 20
95.8949519231
 30
0.0
 40
557.4999999999975
100
AcDbArc
 50
94.3205468574
 51
180.0
  0
ARC
  5
89
330
1F
100
AcDbEntity
  8
0
  6
Continuous
 62
     7
370
    25
100
AcDbCircle
 10
130.6070913462
 20
95.8949519231
 30
0.0
 40
557.4999999999974
100
AcDbArc
 50
87.1211532693
 51
92.8788467307
  0
ARC
  5
8A
330
1F
100
AcDbEntity
  8
0
  6
Continuous
 62
     7
370
    25
100
AcDbCircle
 10
130.6070913462
 20
95.8949519231
 30
0.0
 40
557.4999999999975
100
AcDbArc
 50
180.0
 51
85.6794531426
  0
SPLINE
  5
8B
330
1F
100
AcDbEntity
  8
0
  6
Continuous
 62
     7
370
    25
100
AcDbSpline
210
0.0
220
0.0
230
1.0
 70
     8
 71
     3
 72
    15
 73
    11
 74
     0
 42
0.00000001
 43
0.00000001
 40
0.0
 40
0.0
 40
0.0
 40
0.0
 40
0.1325940956713042
 40
0.2651822823346696
 40
0.3979151253020724
 40
0.5308055172614727
 40
0.6637191497454251
 40
0.7964615624901915
 40
0.92888632362406
 40
1.0
 40
1.0
 40
1.0
 40
1.0
 10
101.3979970614204
 20
651.6884779984531
 30
0.0
 10
100.8913493312893
 20
651.6570395253046
 30
0.0
 10
99.87807644960026
 20
651.5941639800519
 30
0.0
 10
97.70205438016609
 20
651.4621030793976
 30
0.0
 10
95.33519564416977
 20
651.3145894710924
 30
0.0
 10
92.9873183761985
 20
651.1640186737426
 30
0.0
 10
90.9277740877051
 20
651.0293674177561
 30
0.0
 10
89.43580194426471
 20
650.9339500269311
 30
0.0
 10
88.64372741415282
 20
650.8882437667114
 30
0.0
 10
88.68946492593737
 20
650.9005144348114
 30
0.0
 10
88.70544501623914
 20
650.9048016462631
 30
0.0
  0
SPLINE
  5
8C
330
1F
100
AcDbEntity
  8
0
  6
Continuous
 62
     7
370
    25
100
AcDbSpline
210
0.0
220
0.0
230
1.0
 70
     8
 71
     3
 72
    10
 73
     6
 74
     0
 42
0.00000001
 43
0.00000001
 40
0.0
 40
0.0
 40
0.0
 40
0.0
 40
0.0833024674107884
 40
0.6476289843734184
 40
1.0
 40
1.0
 40
1.0
 40
1.0
 10
102.5573766233522
 20
651.7769881973094
 30
0.0
 10
102.5732288633348
 20
651.7769587622334
 30
0.0
 10
102.6964709520635
 20
651.7767299213727
 30
0.0
 10
102.2710846764238
 20
651.7451665729035
 30
0.0
 10
101.6404195610263
 20
651.7042182124718
 30
0.0
 10
101.3979970614204
 20
651.6884779984531
 30
0.0
  0
SPLINE
  5
8D
330
1F
100
AcDbEntity
  8
0
  6
Continuous
 62
     7
370
    25
100
AcDbSpline
210
0.0
220
0.0
230
1.0
 70
     8
 71
     3
 72
    14
 73
    10
 74
     0
 42
0.00000001
 43
0.00000001
 40
0.0
 40
0.0
 40
0.0
 40
0.0
 40
0.1430157841061581
 40
0.2860236243406912
 40
0.4292006541446722
 40
0.5724097733275413
 40
0.715480259364155
 40
0.8583399822368057
 40
1.0
 40
1.0
 40
1.0
 40
1.0
 10
170.5855168569672
 20
651.0104357935985
 30
0.0
 10
169.9762925185924
 20
651.0500515052371
 30
0.0
 10
168.7578776814636
 20
651.1292807280428
 30
0.0
 10
166.4241535340908
 20
651.2800651380273
 30
0.0
 10
164.0384839464877
 20
651.4296179019734
 30
0.0
 10
161.8139732721953
 20
651.5654445823795
 30
0.0
 10
160.037446688417
 20
651.673704359666
 30
0.0
 10
158.835969662837
 20
651.7509447464861
 30
0.0
 10
158.6850074770223
 20
651.7699545971874
 30
0.0
 10
158.6098446574713
 20
651.7794194440975
 30
0.0
  0
SPLINE
  5
8E
330
1F
100
AcDbEntity
  8
0
  6
Continuous
 62
     7
370
    25
100
AcDbSpline
210
0.0
220
0.0
230
1.0
 70
     8
 71
     3
 72
    10
 73
     6
 74
     0
 42
0.00000001
 43
0.00000001
 40
0.0
 40
0.0
 40
0.0
 40
0.0
 40
0.3005616860190194
 40
0.7314842856063505
 40
1.0
 40
1.0
 40
1.0
 40
1.0
 10
172.5234574563012
 20
650.9037199627527
 30
0.0
 10
172.5188116938141
 20
650.900072462517
 30
0.0
 10
172.5075051886535
 20
650.8911954524774
 30
0.0
 10
171.7322639219482
 20
650.9370347719396
 30
0.0
 10
170.903630732581
 20
650.9900739507937
 30
0.0
 10
170.5855168569672
 20
651.0104357935985
 30
0.0
  0
CIRCLE
  5
8F
330
1F
100
AcDbEntity
  8
0
  6
Continuous
 62
     7
370
    25
100
AcDbCircle
 10
130.6070913462
 20
95.8949519231
 30
0.0
 40
450.0
  0
LINE
  5
90
330
1F
100
AcDbEntity
  8
0
  6
Continuous
 62
     7
370
    25
100
AcDbLine
 10
95.6070913462
 20
655.8949519231
 30
0.0
 11
88.6070913462
 21
655.8949519231
 31
0.0
  0
LINE
  5
91
330
1F
100
AcDbEntity
  8
0
  6
Continuous
 62
     7
370
    25
100
AcDbLine
 10
102.6070913462
 20
655.8949519231
 30
0.0
 11
95.6070913462
 21
655.8949519231
 31
0.0
  0
LINE
  5
92
330
1F
100
AcDbEntity
  8
0
  6
Continuous
 62
     7
370
    25
100
AcDbLine
 10
172.6070913462
 20
655.8949519231
 30
0.0
 11
158.6070913462
 21
655.8949519231
 31
0.0
  0
INSERT
  5
9E
330
1F
100
AcDbEntity
  8
FORMAT
 62
     7
100
AcDbBlockReference
  2
SW_CENTERMARKSYMBOL_0
 10
130.6070913462
 20
95.8949519231
 30
0.0
  0
ARC
  5
9F
330
1F
100
AcDbEntity
  8
0
  6
Continuous
 62
     7
370
    25
100
AcDbCircle
 10
1473.7748852427
 20
-33800.2300480778
 30
0.0
 40
34453.62500000087
100
AcDbArc
 50
90.0
 51
90.4049396387
  0
LINE
  5
A0
330
1F
100
AcDbEntity
  8
0
  6
Continuous
 62
     7
370
    25
100
AcDbLine
 10
1216.2748852427
 20
652.4326848763
 30
0.0
 11
1211.2748852427
 21
652.3949519231
 31
0.0
  0
ARC
  5
A1
330
1F
100
AcDbEntity
  8
0
  6
Continuous
 62
     7
370
    25
100
AcDbCircle
 10
1473.7748852427
 20
33992.0199519239
 30
0.0
 40
34453.62500000087
100
AcDbArc
 50
269.5634628393
 51
270.0
  0
LINE
  5
A2
330
1F
100
AcDbEntity
  8
0
  6
Continuous
 62
     7
370
    25
100
AcDbLine
 10
1473.7748852427
 20
-461.6050480769
 30
0.0
 11
1498.7748852427
 21
-461.6050480769
 31
0.0
  0
LINE
  5
A3
330
1F
100
AcDbEntity
  8
0
  6
Continuous
 62
     7
370
    25
100
AcDbLine
 10
1498.7748852427
 20
653.3949519231
 30
0.0
 11
1473.7748852427
 21
653.3949519231
 31
0.0
  0
LINE
  5
A4
330
1F
100
AcDbEntity
  8
0
  6
Continuous
 62
     7
370
    25
100
AcDbLine
 10
1761.2748852427
 20
652.3949519231
 30
0.0
 11
1756.2748852427
 21
652.4326848763
 31
0.0
  0
ARC
  5
A5
330
1F
100
AcDbEntity
  8
0
  6
Continuous
 62
     7
370
    25
100
AcDbCircle
 10
1498.7748852427
 20
-33800.2300480778
 30
0.0
 40
34453.62500000087
100
AcDbArc
 50
89.5950603613
 51
90.0
  0
ARC
  5
A6
330
1F
100
AcDbEntity
  8
0
  6
Continuous
 62
     7
370
    25
100
AcDbCircle
 10
1498.7748852427
 20
33992.0199519239
 30
0.0
 40
34453.62500000087
100
AcDbArc
 50
270.0
 51
270.4365371607
  0
LINE
  5
A7
330
1F
100
AcDbEntity
  8
0
  6
Continuous
 62
     7
370
    25
100
AcDbLine
 10
1230.2748852427
 20
651.4320218138
 30
0.0
 11
1230.2748852427
 21
655.8949519231
 31
0.0
  0
LINE
  5
A8
330
1F
100
AcDbEntity
  8
0
  6
Continuous
 62
     7
370
    25
100
AcDbLine
 10
1216.2748852427
 20
655.8949519231
 30
0.0
 11
1216.2748852427
 21
651.3303037429
 31
0.0
  0
LINE
  5
A9
330
1F
100
AcDbEntity
  8
0
  6
Continuous
 62
     7
370
    25
100
AcDbLine
 10
1756.2748852427
 20
651.3305184706
 30
0.0
 11
1756.2748852427
 21
655.8949519231
 31
0.0
  0
LINE
  5
AA
330
1F
100
AcDbEntity
  8
0
  6
Continuous
 62
     7
370
    25
100
AcDbLine
 10
1742.2748852427
 20
655.8949519231
 30
0.0
 11
1742.2748852427
 21
651.4313865021
 31
0.0
  0
LINE
  5
AB
330
1F
100
AcDbEntity
  8
0
  6
Continuous
 62
     7
370
    25
100
AcDbLine
 10
1211.2748852427
 20
95.8949519231
 30
0.0
 11
1211.2748852427
 21
652.3949519231
 31
0.0
  0
LINE
  5
AC
330
1F
100
AcDbEntity
  8
0
  6
Continuous
 62
     7
370
    25
100
AcDbLine
 10
1211.2748852427
 20
-460.6050480769
 30
0.0
 11
1211.2748852427
 21
95.8949519231
 31
0.0
  0
SPLINE
  5
AD
330
1F
100
AcDbEntity
  8
0
  6
Continuous
 62
     7
370
    25
100
AcDbSpline
210
0.0
220
0.0
230
1.0
 70
     8
 71
     3
 72
    18
 73
    14
 74
     0
 42
0.00000001
 43
0.00000001
 40
0.0
 40
0.0
 40
0.0
 40
0.0
 40
0.0109493189466003
 40
0.1185652333796064
 40
0.2262991247232794
 40
0.3339846303957845
 40
0.4414454739797572
 40
0.548618092800795
 40
0.6556123832663973
 40
0.762646717161805
 40
0.86990459090702
 40
0.9774262991580002
 40
1.0
 40
1.0
 40
1.0
 40
1.0
 10
1230.238701747518
 20
651.4320218138345
 30
0.0
 10
1230.25048675996
 20
651.4272699380418
 30
0.0
 10
1230.378101341042
 20
651.3758140196331
 30
0.0
 10
1229.869122884617
 20
651.2611279381384
 30
0.0
 10
1228.69764729414
 20
651.1103861502996
 30
0.0
 10
1226.831304080035
 20
650.9847297178758
 30
0.0
 10
1224.586468475565
 20
650.9060213365183
 30
0.0
 10
1222.190579858802
 20
650.8856479574699
 30
0.0
 10
1219.926481431539
 20
650.925892657071
 30
0.0
 10
1218.020627851927
 20
651.0192368242231
 30
0.0
 10
1216.770005943551
 20
651.1497722743525
 30
0.0
 10
1216.203065390148
 20
651.2612025453585
 30
0.0
 10
1216.320448093541
 20
651.3200864189098
 30
0.0
 10
1216.340815930108
 20
651.3303037429124
 30
0.0
  0
LINE
  5
AE
330
1F
100
AcDbEntity
  8
0
  6
Continuous
 62
     7
370
    25
100
AcDbLine
 10
1761.2748852427
 20
95.8949519231
 30
0.0
 11
1761.2748852427
 21
652.3949519231
 31
0.0
  0
LINE
  5
AF
330
1F
100
AcDbEntity
  8
0
  6
Continuous
 62
     7
370
    25
100
AcDbLine
 10
1761.2748852427
 20
-460.6050480769
 30
0.0
 11
1761.2748852427
 21
95.8949519231
 31
0.0
  0
SPLINE
  5
B0
330
1F
100
AcDbEntity
  8
0
  6
Continuous
 62
     7
370
    25
100
AcDbSpline
210
0.0
220
0.0
230
1.0
 70
     8
 71
     3
 72
    18
 73
    14
 74
     0
 42
0.00000001
 43
0.00000001
 40
0.0
 40
0.0
 40
0.0
 40
0.0
 40
0.0120974698206032
 40
0.1197734019228116
 40
0.2274681649209695
 40
0.335024195203095
 40
0.4423228447010802
 40
0.5493810188984464
 40
0.6563675061091908
 40
0.7635045302789126
 40
0.870923162869719
 40
0.9785848587222538
 40
1.0
 40
1.0
 40
1.0
 40
1.0
 10
1756.23533245362
 20
651.3305184705536
 30
0.0
 10
1756.248166659716
 20
651.3250750507905
 30
0.0
 10
1756.375234265415
 20
651.2711813926303
 30
0.0
 10
1755.860358353584
 20
651.1634097332413
 30
0.0
 10
1754.679633604645
 20
651.0299860930509
 30
0.0
 10
1752.808734469621
 20
650.9320882069504
 30
0.0
 10
1750.562986095969
 20
650.8867567436762
 30
0.0
 10
1748.169184441268
 20
650.9018860610213
 30
0.0
 10
1745.908347276735
 20
650.9755775241118
 30
0.0
 10
1744.005918450421
 20
651.0970670293253
 30
0.0
 10
1742.761538591128
 20
651.2460654559072
 30
0.0
 10
1742.199655018167
 20
651.3653409599171
 30
0.0
 10
1742.318591925594
 20
651.4219881632223
 30
0.0
 10
1742.338324750881
 20
651.43138650214
 30
0.0
  0
LINE
  5
B1
330
1F
100
AcDbEntity
  8
0
  6
Continuous
 62
     7
370
    25
100
AcDbLine
 10
1230.2748852427
 20
655.8949519231
 30
0.0
 11
1216.2748852427
 21
655.8949519231
 31
0.0
  0
LINE
  5
B2
330
1F
100
AcDbEntity
  8
0
  6
Continuous
 62
     7
370
    25
100
AcDbLine
 10
1756.2748852427
 20
655.8949519231
 30
0.0
 11
1742.2748852427
 21
655.8949519231
 31
0.0
  0
LINE
  5
B3
330
1F
100
AcDbEntity
  8
0
  6
Continuous
 62
     1
370
    25
100
AcDbLine
 10
1473.7748852427
 20
95.8949519231
 30
0.0
 11
1473.7748852427
 21
653.3949519231
 31
0.0
  0
LINE
  5
B4
330
1F
100
AcDbEntity
  8
0
  6
Continuous
 62
     1
370
    25
100
AcDbLine
 10
1473.7748852427
 20
-461.6050480769
 30
0.0
 11
1473.7748852427
 21
95.8949519231
 31
0.0
  0
LINE
  5
B5
330
1F
100
AcDbEntity
  8
0
  6
Continuous
 62
     1
370
    25
100
AcDbLine
 10
1498.7748852427
 20
95.8949519231
 30
0.0
 11
1498.7748852427
 21
653.3949519231
 31
0.0
  0
LINE
  5
B6
330
1F
100
AcDbEntity
  8
0
  6
Continuous
 62
     1
370
    25
100
AcDbLine
 10
1498.7748852427
 20
-461.6050480769
 30
0.0
 11
1498.7748852427
 21
95.8949519231
 31
0.0
  0
ARC
  5
B7
330
1F
100
AcDbEntity
  8
0
  6
Continuous
 62
     7
370
    25
100
AcDbCircle
 10
34026.732091347
 20
1347.4260891893
 30
0.0
 40
34453.62500000088
100
AcDbArc
 50
180.0
 51
180.4365371607
  0
ARC
  5
B8
330
1F
100
AcDbEntity
  8
0
  6
Continuous
 62
     7
370
    25
100
AcDbCircle
 10
-33765.5179086547
 20
1347.4260891893
 30
0.0
 40
34453.62500000087
100
AcDbArc
 50
359.5634628393
 51
0.0
  0
LINE
  5
B9
330
1F
100
AcDbEntity
  8
0
  6
Continuous
 62
     7
370
    25
100
AcDbLine
 10
688.1070913462
 20
1347.4260891893
 30
0.0
 11
688.1070913462
 21
1372.4260891893
 31
0.0
  0
LINE
  5
BA
330
1F
100
AcDbEntity
  8
0
  6
Continuous
 62
     7
370
    25
100
AcDbLine
 10
-426.8929086538
 20
1372.4260891893
 30
0.0
 11
-426.8929086538
 21
1347.4260891893
 31
0.0
  0
ARC
  5
BB
330
1F
100
AcDbEntity
  8
0
  6
Continuous
 62
     7
370
    25
100
AcDbCircle
 10
34026.732091347
 20
1372.4260891893
 30
0.0
 40
34453.62500000088
100
AcDbArc
 50
179.5634628393
 51
180.0
  0
ARC
  5
BC
330
1F
100
AcDbEntity
  8
0
  6
Continuous
 62
     7
370
    25
100
AcDbCircle
 10
-33765.5179086547
 20
1372.4260891893
 30
0.0
 40
34453.62500000087
100
AcDbArc
 50
0.0
 51
0.4365371607
  0
LINE
  5
BD
330
1F
100
AcDbEntity
  8
0
  6
Continuous
 62
     7
370
    25
100
AcDbLine
 10
687.1070913462
 20
1084.9260891893
 30
0.0
 11
-425.8929086538
 21
1084.9260891893
 31
0.0
  0
LINE
  5
BE
330
1F
100
AcDbEntity
  8
0
  6
Continuous
 62
     7
370
    25
100
AcDbLine
 10
687.1070913462
 20
1634.9260891893
 30
0.0
 11
-425.8929086538
 21
1634.9260891893
 31
0.0
  0
LINE
  5
BF
330
1F
100
AcDbEntity
  8
0
  6
Continuous
 62
     1
370
    25
100
AcDbLine
 10
688.1070913462
 20
1347.4260891893
 30
0.0
 11
-426.8929086538
 21
1347.4260891893
 31
0.0
  0
LINE
  5
C0
330
1F
100
AcDbEntity
  8
0
  6
Continuous
 62
     1
370
    25
100
AcDbLine
 10
688.1070913462
 20
1372.4260891893
 30
0.0
 11
-426.8929086538
 21
1372.4260891893
 31
0.0
  0
ARC
  5
C1
330
1F
100
AcDbEntity
  8
0
  6
Continuous
 62
     7
370
    25
100
AcDbCircle
 10
-1267.1282758215
 20
33992.0199519239
 30
0.0
 40
34453.62500000087
100
AcDbArc
 50
270.0
 51
270.4365371607
  0
LINE
  5
C2
330
1F
100
AcDbEntity
  8
0
  6
Continuous
 62
     7
370
    25
100
AcDbLine
 10
-1004.6282758215
 20
652.3949519231
 30
0.0
 11
-1009.6282758215
 21
652.4326848763
 31
0.0
  0
ARC
  5
C3
330
1F
100
AcDbEntity
  8
0
  6
Continuous
 62
     7
370
    25
100
AcDbCircle
 10
-1267.1282758215
 20
-33800.2300480778
 30
0.0
 40
34453.62500000087
100
AcDbArc
 50
89.5950603613
 51
90.0
  0
LINE
  5
C4
330
1F
100
AcDbEntity
  8
0
  6
Continuous
 62
     7
370
    25
100
AcDbLine
 10
-1267.1282758215
 20
653.3949519231
 30
0.0
 11
-1292.1282758215
 21
653.3949519231
 31
0.0
  0
LINE
  5
C5
330
1F
100
AcDbEntity
  8
0
  6
Continuous
 62
     7
370
    25
100
AcDbLine
 10
-1292.1282758215
 20
-461.6050480769
 30
0.0
 11
-1267.1282758215
 21
-461.6050480769
 31
0.0
  0
ARC
  5
C6
330
1F
100
AcDbEntity
  8
0
  6
Continuous
 62
     7
370
    25
100
AcDbCircle
 10
-1292.1282758215
 20
33992.0199519239
 30
0.0
 40
34453.62500000087
100
AcDbArc
 50
269.5634628393
 51
270.0
  0
ARC
  5
C7
330
1F
100
AcDbEntity
  8
0
  6
Continuous
 62
     7
370
    25
100
AcDbCircle
 10
-1292.1282758215
 20
-33800.2300480778
 30
0.0
 40
34453.62500000087
100
AcDbArc
 50
90.0
 51
90.4049396387
  0
LINE
  5
C8
330
1F
100
AcDbEntity
  8
0
  6
Continuous
 62
     7
370
    25
100
AcDbLine
 10
-1549.6282758215
 20
652.4326848763
 30
0.0
 11
-1554.6282758215
 21
652.3949519231
 31
0.0
  0
LINE
  5
C9
330
1F
100
AcDbEntity
  8
0
  6
Continuous
 62
     7
370
    25
100
AcDbLine
 10
-1009.6282758215
 20
651.3302874501
 30
0.0
 11
-1009.6282758215
 21
655.8949519231
 31
0.0
  0
LINE
  5
CA
330
1F
100
AcDbEntity
  8
0
  6
Continuous
 62
     7
370
    25
100
AcDbLine
 10
-1023.6282758215
 20
655.8949519231
 30
0.0
 11
-1023.6282758215
 21
651.4309671128
 31
0.0
  0
LINE
  5
CB
330
1F
100
AcDbEntity
  8
0
  6
Continuous
 62
     7
370
    25
100
AcDbLine
 10
-1535.6282758215
 20
651.4309790861
 30
0.0
 11
-1535.6282758215
 21
655.8949519231
 31
0.0
  0
LINE
  5
CC
330
1F
100
AcDbEntity
  8
0
  6
Continuous
 62
     7
370
    25
100
AcDbLine
 10
-1549.6282758215
 20
655.8949519231
 30
0.0
 11
-1549.6282758215
 21
651.3302870371
 31
0.0
  0
LINE
  5
CD
330
1F
100
AcDbEntity
  8
0
  6
Continuous
 62
     7
370
    25
100
AcDbLine
 10
-1004.6282758215
 20
652.3949519231
 30
0.0
 11
-1004.6282758215
 21
-460.6050480769
 31
0.0
  0
SPLINE
  5
CE
330
1F
100
AcDbEntity
  8
0
  6
Continuous
 62
     7
370
    25
100
AcDbSpline
210
0.0
220
0.0
230
1.0
 70
     8
 71
     3
 72
    10
 73
     6
 74
     0
 42
0.00000001
 43
0.00000001
 40
0.0
 40
0.0
 40
0.0
 40
0.0
 40
0.4262161048265948
 40
0.852416604663008
 40
1.0
 40
1.0
 40
1.0
 40
1.0
 10
-1021.539814499997
 20
651.0814470226502
 30
0.0
 10
-1022.036986671292
 20
651.1281803005978
 30
0.0
 10
-1023.031312810989
 20
651.2216451454539
 30
0.0
 10
-1023.655475671319
 20
651.3496879417412
 30
0.0
 10
-1023.562012183507
 20
651.4143383355116
 30
0.0
 10
-1023.537972368191
 20
651.4309671128314
 30
0.0
  0
SPLINE
  5
CF
330
1F
100
AcDbEntity
  8
0
  6
Continuous
 62
     7
370
    25
100
AcDbSpline
210
0.0
220
0.0
230
1.0
 70
     8
 71
     3
 72
    15
 73
    11
 74
     0
 42
0.00000001
 43
0.00000001
 40
0.0
 40
0.0
 40
0.0
 40
0.0
 40
0.0490693975486557
 40
0.193121015735234
 40
0.3371523374540303
 40
0.4809519403988771
 40
0.624393181613052
 40
0.7675489388547982
 40
0.9106774751390407
 40
1.0
 40
1.0
 40
1.0
 40
1.0
 10
-1009.71767147809
 20
651.3302874501109
 30
0.0
 10
-1009.693292782015
 20
651.3135572808783
 30
0.0
 10
-1009.597346249481
 20
651.2477128353169
 30
0.0
 10
-1010.248429964681
 20
651.1308794205983
 30
0.0
 10
-1011.604327691324
 20
651.0037170763088
 30
0.0
 10
-1013.580564504293
 20
650.9167082953398
 30
0.0
 10
-1015.885611637333
 20
650.8847126581876
 30
0.0
 10
-1018.265369855378
 20
650.9140737207504
 30
0.0
 10
-1020.211441846649
 20
650.9880982093215
 30
0.0
 10
-1021.171065775697
 20
651.0555339208234
 30
0.0
 10
-1021.539814499997
 20
651.0814470226502
 30
0.0
  0
LINE
  5
D0
330
1F
100
AcDbEntity
  8
0
  6
Continuous
 62
     7
370
    25
100
AcDbLine
 10
-1554.6282758215
 20
652.3949519231
 30
0.0
 11
-1554.6282758215
 21
-460.6050480769
 31
0.0
  0
SPLINE
  5
D1
330
1F
100
AcDbEntity
  8
0
  6
Continuous
 62
     7
370
    25
100
AcDbSpline
210
0.0
220
0.0
230
1.0
 70
     8
 71
     3
 72
    10
 73
     6
 74
     0
 42
0.00000001
 43
0.00000001
 40
0.0
 40
0.0
 40
0.0
 40
0.0
 40
0.4268711775159572
 40
0.8537186442936195
 40
1.0
 40
1.0
 40
1.0
 40
1.0
 10
-1547.54917812015
 20
651.0104357936
 30
0.0
 10
-1548.044873746747
 20
651.0499634366926
 30
0.0
 10
-1549.03623746632
 20
651.1290165272981
 30
0.0
 10
-1549.656658800306
 20
651.2477498790255
 30
0.0
 10
-1549.562578197476
 20
651.3135043340359
 30
0.0
 10
-1549.538565728399
 20
651.3302870370607
 30
0.0
  0
SPLINE
  5
D2
330
1F
100
AcDbEntity
  8
0
  6
Continuous
 62
     7
370
    25
100
AcDbSpline
210
0.0
220
0.0
230
1.0
 70
     8
 71
     3
 72
    15
 73
    11
 74
     0
 42
0.00000001
 43
0.00000001
 40
0.0
 40
0.0
 40
0.0
 40
0.0
 40
0.0495531389996954
 40
0.1934260599167224
 40
0.3374116291517456
 40
0.4812702702267589
 40
0.6247886288814449
 40
0.7679365923157896
 40
0.9109104113209234
 40
1.0
 40
1.0
 40
1.0
 40
1.0
 10
-1535.718000686805
 20
651.4309790860635
 30
0.0
 10
-1535.693667545222
 20
651.4144210245032
 30
0.0
 10
-1535.598685394807
 20
651.3497881743525
 30
0.0
 10
-1536.251871034665
 20
651.223348618689
 30
0.0
 10
-1537.610162321411
 20
651.0764982871705
 30
0.0
 10
-1539.58915852738
 20
650.9607650215123
 30
0.0
 10
-1541.897364717314
 20
650.8953436150407
 30
0.0
 10
-1544.278764667863
 20
650.8903295206268
 30
0.0
 10
-1546.22373271173
 20
650.9362973238395
 30
0.0
 10
-1547.181492351716
 20
650.9898693786793
 30
0.0
 10
-1547.54917812015
 20
651.0104357936001
 30
0.0
  0
LINE
  5
D3
330
1F
100
AcDbEntity
  8
0
  6
Continuous
 62
     7
370
    25
100
AcDbLine
 10
-1009.6282758215
 20
655.8949519231
 30
0.0
 11
-1023.6282758215
 21
655.8949519231
 31
0.0
  0
LINE
  5
D4
330
1F
100
AcDbEntity
  8
0
  6
Continuous
 62
     7
370
    25
100
AcDbLine
 10
-1535.6282758215
 20
655.8949519231
 30
0.0
 11
-1549.6282758215
 21
655.8949519231
 31
0.0
  0
LINE
  5
D5
330
1F
100
AcDbEntity
  8
0
  6
Continuous
 62
     1
370
    25
100
AcDbLine
 10
-1267.1282758215
 20
653.3949519231
 30
0.0
 11
-1267.1282758215
 21
-461.6050480769
 31
0.0
  0
LINE
  5
D6
330
1F
100
AcDbEntity
  8
0
  6
Continuous
 62
     1
370
    25
100
AcDbLine
 10
-1292.1282758215
 20
653.3949519231
 30
0.0
 11
-1292.1282758215
 21
-461.6050480769
 31
0.0
  0
ARC
  5
D7
330
1F
100
AcDbEntity
  8
0
  6
Continuous
 62
     7
370
    25
100
AcDbCircle
 10
-33765.5179086547
 20
-1245.3694518468
 30
0.0
 40
34453.62500000087
100
AcDbArc
 50
0.0
 51
0.4365371607
  0
ARC
  5
D8
330
1F
100
AcDbEntity
  8
0
  6
Continuous
 62
     7
370
    25
100
AcDbCircle
 10
34026.732091347
 20
-1245.3694518468
 30
0.0
 40
34453.62500000088
100
AcDbArc
 50
179.5634628393
 51
180.0
  0
LINE
  5
D9
330
1F
100
AcDbEntity
  8
0
  6
Continuous
 62
     7
370
    25
100
AcDbLine
 10
-426.8929086538
 20
-1245.3694518468
 30
0.0
 11
-426.8929086538
 21
-1270.3694518468
 31
0.0
  0
LINE
  5
DA
330
1F
100
AcDbEntity
  8
0
  6
Continuous
 62
     7
370
    25
100
AcDbLine
 10
688.1070913462
 20
-1270.3694518468
 30
0.0
 11
688.1070913462
 21
-1245.3694518468
 31
0.0
  0
ARC
  5
DB
330
1F
100
AcDbEntity
  8
0
  6
Continuous
 62
     7
370
    25
100
AcDbCircle
 10
-33765.5179086547
 20
-1270.3694518468
 30
0.0
 40
34453.62500000087
100
AcDbArc
 50
359.5634628393
 51
0.0
  0
ARC
  5
DC
330
1F
100
AcDbEntity
  8
0
  6
Continuous
 62
     7
370
    25
100
AcDbCircle
 10
34026.732091347
 20
-1270.3694518468
 30
0.0
 40
34453.62500000088
100
AcDbArc
 50
180.0
 51
180.4365371607
  0
CIRCLE
  5
DD
330
1F
100
AcDbEntity
  8
0
  6
Continuous
 62
     7
370
    25
100
AcDbCircle
 10
165.6070913462
 20
-994.8694518468
 30
0.0
 40
7.000000000000114
  0
CIRCLE
  5
DE
330
1F
100
AcDbEntity
  8
0
  6
Continuous
 62
     7
370
    25
100
AcDbCircle
 10
165.6070913462
 20
-994.8694518468
 30
0.0
 40
5.000000000000114
  0
CIRCLE
  5
DF
330
1F
100
AcDbEntity
  8
0
  6
Continuous
 62
     7
370
    25
100
AcDbCircle
 10
95.6070913462
 20
-994.8694518468
 30
0.0
 40
4.999999999999886
  0
CIRCLE
  5
E0
330
1F
100
AcDbEntity
  8
0
  6
Continuous
 62
     7
370
    25
100
AcDbCircle
 10
95.6070913462
 20
-994.8694518468
 30
0.0
 40
6.999999999999886
  0
CIRCLE
  5
E1
330
1F
100
AcDbEntity
  8
0
  6
Continuous
 62
     7
370
    25
100
AcDbCircle
 10
165.6070913462
 20
-1520.8694518468
 30
0.0
 40
6.999999999999773
  0
CIRCLE
  5
E2
330
1F
100
AcDbEntity
  8
0
  6
Continuous
 62
     7
370
    25
100
AcDbCircle
 10
165.6070913462
 20
-1520.8694518468
 30
0.0
 40
4.999999999999773
  0
CIRCLE
  5
E3
330
1F
100
AcDbEntity
  8
0
  6
Continuous
 62
     7
370
    25
100
AcDbCircle
 10
95.6070913462
 20
-1520.8694518468
 30
0.0
 40
5.000000000000227
  0
CIRCLE
  5
E4
330
1F
100
AcDbEntity
  8
0
  6
Continuous
 62
     7
370
    25
100
AcDbCircle
 10
95.6070913462
 20
-1520.8694518468
 30
0.0
 40
7.000000000000227
  0
LINE
  5
E5
330
1F
100
AcDbEntity
  8
0
  6
Continuous
 62
     7
370
    25
100
AcDbLine
 10
-425.8929086538
 20
-982.8694518468
 30
0.0
 11
687.1070913462
 21
-982.8694518468
 31
0.0
  0
LINE
  5
E6
330
1F
100
AcDbEntity
  8
0
  6
Continuous
 62
     7
370
    25
100
AcDbLine
 10
-425.8929086538
 20
-1532.8694518468
 30
0.0
 11
687.1070913462
 21
-1532.8694518468
 31
0.0
  0
LINE
  5
E7
330
1F
100
AcDbEntity
  8
0
  6
Continuous
 62
     1
370
    25
100
AcDbLine
 10
-426.8929086538
 20
-1245.3694518468
 30
0.0
 11
688.1070913462
 21
-1245.3694518468
 31
0.0
  0
LINE
  5
E8
330
1F
100
AcDbEntity
  8
0
  6
Continuous
 62
     1
370
    25
100
AcDbLine
 10
-426.8929086538
 20
-1270.3694518468
 30
0.0
 11
688.1070913462
 21
-1270.3694518468
 31
0.0
  0
INSERT
  5
F4
330
1F
100
AcDbEntity
  8
FORMAT
 62
     7
100
AcDbBlockReference
  2
SW_CENTERMARKSYMBOL_1
 10
130.6070913462
 20
-1224.8694518468
 30
0.0
  0
INSERT
  5
100
330
1F
100
AcDbEntity
  8
FORMAT
 62
     7
100
AcDbBlockReference
  2
SW_CENTERMARKSYMBOL_2
 10
130.6070913462
 20
-1290.8694518468
 30
0.0
  0
SPLINE
  5
101
330
1F
100
AcDbEntity
  8
0
  6
Continuous
 62
     7
370
    25
100
AcDbSpline
210
0.0
220
0.0
230
1.0
 70
     8
 71
     3
 72
    10
 73
     6
 74
     0
 42
0.00000001
 43
0.00000001
 40
0.0
 40
0.0
 40
0.0
 40
0.0
 40
0.3083732973371025
 40
0.7041790374780186
 40
1.0
 40
1.0
 40
1.0
 40
1.0
 10
1295.139902752755
 20
-718.9832170255796
 30
0.0
 10
1275.910106252995
 20
-730.0946772192831
 30
0.0
 10
1231.998328848688
 20
-755.4680069198243
 30
0.0
 10
1169.794983088133
 20
-791.7684146279394
 30
0.0
 10
1126.883801527125
 20
-817.0601710933394
 30
0.0
 10
1108.529930886419
 20
-827.8779022663255
 30
0.0
  0
SPLINE
  5
102
330
1F
100
AcDbEntity
  8
0
  6
Continuous
 62
     7
370
    25
100
AcDbSpline
210
0.0
220
0.0
230
1.0
 70
     8
 71
     3
 72
    11
 73
     7
 74
     0
 42
0.00000001
 43
0.00000001
 40
0.0
 40
0.0
 40
0.0
 40
0.0
 40
0.1209188986376731
 40
0.5167405259030251
 40
0.91255931978888
 40
1.0
 40
1.0
 40
1.0
 40
1.0
 10
1664.944936365819
 20
-1791.72145690933
 30
0.0
 10
1672.531909368766
 20
-1787.446710439517
 30
0.0
 10
1704.954437722273
 20
-1769.178807210162
 30
0.0
 10
1762.04615137663
 20
-1736.620563232249
 30
0.0
 10
1816.998657560104
 20
-1705.177777994273
 30
0.0
 10
1847.117800785191
 20
-1687.736379225207
 30
0.0
 10
1852.567540546422
 20
-1684.580542963434
 30
0.0
  0
LINE
  5
103
330
1F
100
AcDbEntity
  8
0
  6
Continuous
 62
     7
370
    25
100
AcDbLine
 10
1312.8040337161
 20
-708.7545440348
 30
0.0
 11
1295.1263641864
 21
-718.9596454326
 31
0.0
  0
LINE
  5
104
330
1F
100
AcDbEntity
  8
0
  6
Continuous
 62
     7
370
    25
100
AcDbLine
 10
1852.581057631
 20
-1684.6041269871
 30
0.0
 11
1870.2587271607
 21
-1674.3990255893
 31
0.0
  0
SPLINE
  5
105
330
1F
100
AcDbEntity
  8
0
  6
Continuous
 62
     7
370
    25
100
AcDbSpline
210
0.0
220
0.0
230
1.0
 70
     8
 71
     3
 72
    11
 73
     7
 74
     0
 42
0.00000001
 43
0.00000001
 40
0.0
 40
0.0
 40
0.0
 40
0.0
 40
0.1209177972419657
 40
0.5167399721647935
 40
0.9125593136973303
 40
1.0
 40
1.0
 40
1.0
 40
1.0
 10
1500.439916222295
 20
-601.6373487643184
 30
0.0
 10
1492.853022836004
 20
-605.9120504066932
 30
0.0
 10
1460.430574142169
 20
-624.1799088863955
 30
0.0
 10
1403.338940013767
 20
-656.7381078750129
 30
0.0
 10
1348.386440952527
 20
-688.1808888983535
 30
0.0
 10
1318.267304883898
 20
-705.6222835138035
 30
0.0
 10
1312.81757228242
 20
-708.7781156277948
 30
0.0
  0
SPLINE
  5
106
330
1F
100
AcDbEntity
  8
0
  6
Continuous
 62
     7
370
    25
100
AcDbSpline
210
0.0
220
0.0
230
1.0
 70
     8
 71
     3
 72
    10
 73
     6
 74
     0
 42
0.00000001
 43
0.00000001
 40
0.0
 40
0.0
 40
0.0
 40
0.0
 40
0.3083737373313689
 40
0.7041801896830083
 40
1.0
 40
1.0
 40
1.0
 40
1.0
 10
1870.24521007608
 20
-1674.375441565654
 30
0.0
 10
1889.474999404732
 20
-1663.263985500166
 30
0.0
 10
1933.386769629393
 20
-1637.890659912966
 30
0.0
 10
1995.590003558887
 20
-1601.590317685287
 30
0.0
 10
2038.501080656006
 20
-1576.298622901195
 30
0.0
 10
2056.854846804775
 20
-1565.480953362799
 30
0.0
  0
LINE
  5
107
330
1F
100
AcDbEntity
  8
0
  6
Continuous
 62
     7
370
    25
100
AcDbLine
 10
1428.472199563
 20
-864.9890712746
 30
0.0
 11
1428.472199563
 21
-861.0612895165
 31
0.0
  0
LINE
  5
108
330
1F
100
AcDbEntity
  8
0
  6
Continuous
 62
     7
370
    25
100
AcDbLine
 10
1414.472199563
 20
-861.0612895165
 30
0.0
 11
1414.472199563
 21
-864.5415405232
 31
0.0
  0
LINE
  5
109
330
1F
100
AcDbEntity
  8
0
  6
Continuous
 62
     7
370
    25
100
AcDbLine
 10
1378.97472488
 20
-835.9096946271
 30
0.0
 11
1378.97472488
 21
-832.4870056027
 31
0.0
  0
LINE
  5
10A
330
1F
100
AcDbEntity
  8
0
  6
Continuous
 62
     7
370
    25
100
AcDbLine
 10
1364.97472488
 20
-832.4870056027
 30
0.0
 11
1364.97472488
 21
-836.4709226923
 31
0.0
  0
LINE
  5
10B
330
1F
100
AcDbEntity
  8
0
  6
Continuous
 62
     7
370
    25
100
AcDbLine
 10
1800.4103664671
 20
-650.3326217378
 30
0.0
 11
1800.4103664671
 21
-646.3459561071
 31
0.0
  0
LINE
  5
10C
330
1F
100
AcDbEntity
  8
0
  6
Continuous
 62
     7
370
    25
100
AcDbLine
 10
1786.4103664671
 20
-646.3459561071
 30
0.0
 11
1786.4103664671
 21
-649.7681077847
 31
0.0
  0
LINE
  5
10D
330
1F
100
AcDbEntity
  8
0
  6
Continuous
 62
     7
370
    25
100
AcDbLine
 10
1750.9128917841
 20
-621.2523661297
 30
0.0
 11
1750.9128917841
 21
-617.7716721934
 31
0.0
  0
LINE
  5
10E
330
1F
100
AcDbEntity
  8
0
  6
Continuous
 62
     7
370
    25
100
AcDbLine
 10
1736.9128917841
 20
-617.7716721934
 30
0.0
 11
1736.9128917841
 21
-621.6970791157
 31
0.0
  0
LWPOLYLINE
  5
10F
330
1F
100
AcDbEntity
  8
0
  6
Continuous
 62
     7
370
    25
100
AcDbPolyline
 90
      241
 70
   128
 43
0.0
 10
994.7332571169
 20
-1081.7698937719
 10
994.8681014263
 20
-1069.9528025385
 10
995.2725419388
 20
-1058.2994980748
 10
995.9463014712
 20
-1046.8179669736
 10
996.8889182622
 20
-1035.5160781029
 10
998.0997462895
 20
-1024.4015772126
 10
999.577955712
 20
-1013.4820816266
 10
1001.3225334388
 20
-1002.7650750216
 10
1003.3322838235
 20
-992.2579022987
 10
1005.6058294835
 20
-981.9677645492
 10
1008.1416122442
 20
-971.9017141195
 10
1010.9378942068
 20
-962.0666497778
 10
1013.9927589393
 20
-952.4693119859
 10
1017.30411279
 20
-943.1162782797
 10
1020.8696863224
 20
-934.0139587613
 10
1024.6870358704
 20
-925.1685917059
 10
1028.7535452134
 20
-916.5862392862
 10
1033.0664273691
 20
-908.2727834179
 10
1037.6227265033
 20
-900.2339217283
 10
1042.4193199563
 20
-892.4751636516
 10
1047.4529203825
 20
-885.0018266532
 10
1052.7200780037
 20
-877.8190325849
 10
1058.217182973
 20
-870.9317041749
 10
1063.9404678494
 20
-864.3445616542
 10
1069.8860101792
 20
-858.0621195211
 10
1076.0497351848
 20
-852.0886834477
 10
1082.4274185568
 20
-846.4283473288
 10
1089.0146893497
 20
-841.0849904758
 10
1095.8070329772
 20
-836.0622749588
 10
1102.7997943061
 20
-831.363643096
 10
1109.9881808473
 20
-826.992315095
 10
1117.3672660395
 20
-822.9512868457
 10
1124.9319926264
 20
-819.243327867
 10
1132.6771761223
 20
-815.8709794087
 10
1140.5975083653
 20
-812.83655271
 10
1148.6875611552
 20
-810.1421274155
 10
1156.9417899741
 20
-807.7895501496
 10
1165.3545377858
 20
-805.7804332513
 10
1173.9200389131
 20
-804.1161536689
 10
1182.6324229895
 20
-802.7978520165
 10
1191.4857189821
 20
-801.8264317923
 10
1200.473859284
 20
-801.202558759
 10
1209.590683873
 20
-800.9266604883
 10
1218.8299445327
 20
-800.9989260668
 10
1228.1853091354
 20
-801.4193059675
 10
1237.6503659816
 20
-802.1875120829
 10
1247.218628194
 20
-803.3030179229
 10
1256.8835381638
 20
-804.7650589756
 10
1266.6384720444
 20
-806.572633231
 10
1276.4767442913
 20
-808.7245018681
 10
1286.3916122442
 20
-811.2191901035
 10
1296.3762807479
 20
-814.0549882026
 10
1306.4239068094
 20
-817.229952651
 10
1316.5276042875
 20
-820.7419074866
 10
1326.6804486128
 20
-824.5884457911
 10
1336.8754815329
 20
-828.7669313392
 10
1347.1057158815
 20
-833.2745004056
 10
1357.3641403669
 20
-838.1080637277
 10
1367.6437243775
 20
-843.2643086226
 10
1377.9374227999
 20
-848.7397012576
 10
1388.2381808473
 20
-854.5304890722
 10
1398.5389388946
 20
-860.6327033495
 10
1408.832637317
 20
-867.0421619367
 10
1419.1122213276
 20
-873.7544721112
 10
1429.370645813
 20
-880.7650335907
 10
1439.6008801616
 20
-888.0690416866
 10
1449.7959130817
 20
-895.6614905967
 10
1459.948757407
 20
-903.5371768357
 10
1470.0524548851
 20
-911.6907028015
 10
1480.1000809466
 20
-920.1164804749
 10
1490.0847494503
 20
-928.8087352487
 10
1499.9996174032
 20
-937.7615098857
 10
1509.8378896501
 20
-946.9686686012
 10
1519.5928235307
 20
-956.4239012687
 10
1529.2577335005
 20
-966.1207277439
 10
1538.8259957129
 20
-976.0525023064
 10
1548.2910525591
 20
-986.212418214
 10
1557.6464171619
 20
-996.5935123678
 10
1566.8856778216
 20
-1007.1886700845
 10
1576.0025024105
 20
-1017.9906299721
 10
1584.9906427124
 20
-1028.9919889069
 10
1593.843938705
 20
-1040.1852071071
 10
1602.5563227814
 20
-1051.5626133
 10
1611.1218239087
 20
-1063.1164099798
 10
1619.5345717204
 20
-1074.8386787512
 10
1627.7888005393
 20
-1086.7213857569
 10
1635.8788533293
 20
-1098.756387183
 10
1643.7991855722
 20
-1110.9354348406
 10
1651.5443690681
 20
-1123.2501818189
 10
1659.109095655
 20
-1135.6921882055
 10
1666.4881808473
 20
-1148.2529268706
 10
1673.6765673884
 20
-1160.9237893114
 10
1680.6693287173
 20
-1173.6960915517
 10
1687.4616723448
 20
-1186.5610800935
 10
1694.0489431377
 20
-1199.5099379163
 10
1700.4266265097
 20
-1212.5337905198
 10
1706.5903515153
 20
-1225.623712006
 10
1712.5358938451
 20
-1238.7707311964
 10
1718.2591787215
 20
-1251.9658377809
 10
1723.7562836908
 20
-1265.1999884926
 10
1729.023441312
 20
-1278.4641133055
 10
1734.0570417382
 20
-1291.7491216512
 10
1738.8536351912
 20
-1305.0459086484
 10
1743.4099343254
 20
-1318.3453613436
 10
1747.7228164811
 20
-1331.6383649562
 10
1751.7893258241
 20
-1344.9158091255
 10
1755.6066753721
 20
-1358.1685941545
 10
1759.1722489045
 20
-1371.3876372464
 10
1762.4836027552
 20
-1384.5638787294
 10
1765.5384674877
 20
-1397.6882882656
 10
1768.3347494503
 20
-1410.7518710403
 10
1770.870532211
 20
-1423.7456739266
 10
1773.144077871
 20
-1436.6607916208
 10
1775.1538282557
 20
-1449.4883727466
 10
1776.8984059825
 20
-1462.2196259205
 10
1778.376615405
 20
-1474.8458257775
 10
1779.5874434323
 20
-1487.358318951
 10
1780.5300602233
 20
-1499.7485300031
 10
1781.2038197557
 20
-1512.0079673022
 10
1781.6082602682
 20
-1524.1282288422
 10
1781.7431045776
 20
-1536.1010080013
 10
1781.6082602682
 20
-1547.9180992347
 10
1781.2038197557
 20
-1559.5714036984
 10
1780.5300602233
 20
-1571.0529347995
 10
1779.5874434323
 20
-1582.3548236703
 10
1778.376615405
 20
-1593.4693245606
 10
1776.8984059825
 20
-1604.3888201466
 10
1775.1538282557
 20
-1615.1058267516
 10
1773.144077871
 20
-1625.6129994745
 10
1770.870532211
 20
-1635.903137224
 10
1768.3347494503
 20
-1645.9691876536
 10
1765.5384674877
 20
-1655.8042519954
 10
1762.4836027552
 20
-1665.4015897873
 10
1759.1722489045
 20
-1674.7546234935
 10
1755.6066753721
 20
-1683.8569430118
 10
1751.7893258241
 20
-1692.7023100672
 10
1747.7228164811
 20
-1701.2846624869
 10
1743.4099343254
 20
-1709.5981183553
 10
1738.8536351912
 20
-1717.6369800449
 10
1734.0570417382
 20
-1725.3957381215
 10
1729.023441312
 20
-1732.8690751199
 10
1723.7562836908
 20
-1740.0518691883
 10
1718.2591787215
 20
-1746.9391975982
 10
1712.5358938451
 20
-1753.526340119
 10
1706.5903515153
 20
-1759.808782252
 10
1700.4266265097
 20
-1765.7822183254
 10
1694.0489431377
 20
-1771.4425544444
 10
1687.4616723448
 20
-1776.7859112974
 10
1680.6693287173
 20
-1781.8086268144
 10
1673.6765673884
 20
-1786.5072586772
 10
1666.4881808472
 20
-1790.8785866782
 10
1659.109095655
 20
-1794.9196149275
 10
1651.5443690681
 20
-1798.6275739062
 10
1643.7991855722
 20
-1801.9999223645
 10
1635.8788533292
 20
-1805.0343490631
 10
1627.7888005393
 20
-1807.7287743576
 10
1619.5345717204
 20
-1810.0813516236
 10
1611.1218239087
 20
-1812.0904685219
 10
1602.5563227814
 20
-1813.7547481043
 10
1593.843938705
 20
-1815.0730497567
 10
1584.9906427124
 20
-1816.0444699809
 10
1576.0025024105
 20
-1816.6683430141
 10
1566.8856778215
 20
-1816.9442412849
 10
1557.6464171618
 20
-1816.8719757063
 10
1548.2910525591
 20
-1816.4515958057
 10
1538.8259957129
 20
-1815.6833896903
 10
1529.2577335005
 20
-1814.5678838502
 10
1519.5928235307
 20
-1813.1058427975
 10
1509.8378896501
 20
-1811.2982685421
 10
1499.9996174032
 20
-1809.1463999051
 10
1490.0847494503
 20
-1806.6517116696
 10
1480.1000809466
 20
-1803.8159135705
 10
1470.0524548851
 20
-1800.6409491222
 10
1459.948757407
 20
-1797.1289942865
 10
1449.7959130817
 20
-1793.2824559821
 10
1439.6008801616
 20
-1789.103970434
 10
1429.370645813
 20
-1784.5964013675
 10
1419.1122213276
 20
-1779.7628380454
 10
1408.832637317
 20
-1774.6065931505
 10
1398.5389388946
 20
-1769.1312005155
 10
1388.2381808472
 20
-1763.340412701
 10
1377.9374227999
 20
-1757.2381984237
 10
1367.6437243775
 20
-1750.8287398364
 10
1357.3641403669
 20
-1744.116429662
 10
1347.1057158815
 20
-1737.1058681825
 10
1336.8754815329
 20
-1729.8018600865
 10
1326.6804486128
 20
-1722.2094111765
 10
1316.5276042875
 20
-1714.3337249375
 10
1306.4239068094
 20
-1706.1801989716
 10
1296.3762807479
 20
-1697.7544212982
 10
1286.3916122442
 20
-1689.0621665244
 10
1276.4767442913
 20
-1680.1093918875
 10
1266.6384720444
 20
-1670.9022331719
 10
1256.8835381638
 20
-1661.4470005045
 10
1247.218628194
 20
-1651.7501740292
 10
1237.6503659816
 20
-1641.8183994667
 10
1228.1853091354
 20
-1631.6584835591
 10
1218.8299445326
 20
-1621.2773894053
 10
1209.590683873
 20
-1610.6822316887
 10
1200.473859284
 20
-1599.8802718011
 10
1191.4857189821
 20
-1588.8789128662
 10
1182.6324229895
 20
-1577.685694666
 10
1173.9200389131
 20
-1566.3082884731
 10
1165.3545377858
 20
-1554.7544917934
 10
1156.9417899741
 20
-1543.0322230219
 10
1148.6875611552
 20
-1531.1495160163
 10
1140.5975083653
 20
-1519.1145145902
 10
1132.6771761223
 20
-1506.9354669326
 10
1124.9319926264
 20
-1494.6207199542
 10
1117.3672660395
 20
-1482.1787135677
 10
1109.9881808473
 20
-1469.6179749026
 10
1102.7997943061
 20
-1456.9471124618
 10
1095.8070329772
 20
-1444.1748102215
 10
1089.0146893497
 20
-1431.3098216797
 10
1082.4274185568
 20
-1418.3609638568
 10
1076.0497351848
 20
-1405.3371112533
 10
1069.8860101792
 20
-1392.2471897672
 10
1063.9404678494
 20
-1379.1001705767
 10
1058.217182973
 20
-1365.9050639922
 10
1052.7200780037
 20
-1352.6709132806
 10
1047.4529203825
 20
-1339.4067884676
 10
1042.4193199563
 20
-1326.121780122
 10
1037.6227265033
 20
-1312.8249931248
 10
1033.0664273691
 20
-1299.5255404296
 10
1028.7535452134
 20
-1286.232536817
 10
1024.6870358704
 20
-1272.9550926477
 10
1020.8696863224
 20
-1259.7023076186
 10
1017.30411279
 20
-1246.4832645267
 10
1013.9927589393
 20
-1233.3070230438
 10
1010.9378942068
 20
-1220.1826135076
 10
1008.1416122442
 20
-1207.1190307328
 10
1005.6058294835
 20
-1194.1252278466
 10
1003.3322838235
 20
-1181.2101101523
 10
1001.3225334388
 20
-1168.3825290266
 10
999.577955712
 20
-1155.6512758527
 10
998.0997462895
 20
-1143.0250759957
 10
996.8889182622
 20
-1130.5125828222
 10
995.9463014712
 20
-1118.12237177
 10
995.2725419388
 20
-1105.862934471
 10
994.8681014263
 20
-1093.742672931
 10
994.7332571169
 20
-1081.7698937719
  0
SPLINE
  5
110
330
1F
100
AcDbEntity
  8
0
  6
Continuous
 62
     7
370
    25
100
AcDbSpline
210
0.0
220
0.0
230
1.0
 70
     8
 71
     3
 72
    13
 73
     9
 74
     0
 42
0.00000001
 43
0.00000001
 40
0.0
 40
0.0
 40
0.0
 40
0.0
 40
0.1917457824047113
 40
0.3834830197623395
 40
0.5754294461948052
 40
0.7676037059601964
 40
0.9598115741041658
 40
1.0
 40
1.0
 40
1.0
 40
1.0
 10
1373.288739316074
 20
-839.8909412477656
 30
0.0
 10
1372.500285406339
 20
-839.9580100023508
 30
0.0
 10
1370.923412723891
 20
-840.0921445226384
 30
0.0
 10
1368.642431197481
 20
-839.742270991223
 30
0.0
 10
1366.729336559022
 20
-839.0270694038443
 30
0.0
 10
1365.47180420946
 20
-837.9880975556114
 30
0.0
 10
1364.902614498551
 20
-837.0794369756718
 30
0.0
 10
1365.020241752582
 20
-836.5638227887404
 30
0.0
 10
1365.040583101834
 20
-836.4746573283877
 30
0.0
  0
SPLINE
  5
111
330
1F
100
AcDbEntity
  8
0
  6
Continuous
 62
     7
370
    25
100
AcDbSpline
210
0.0
220
0.0
230
1.0
 70
     8
 71
     3
 72
    12
 73
     8
 74
     0
 42
0.00000001
 43
0.00000001
 40
0.0
 40
0.0
 40
0.0
 40
0.0
 40
0.1165342346294247
 40
0.3604944790004518
 40
0.6042077013651121
 40
0.8478606854539511
 40
1.0
 40
1.0
 40
1.0
 40
1.0
 10
1378.875373895675
 20
-835.9101401932663
 30
0.0
 10
1378.895991650363
 20
-836.1159176113529
 30
0.0
 10
1378.959771935683
 20
-836.7524826804855
 30
0.0
 10
1378.214411712338
 20
-837.8123527177623
 30
0.0
 10
1376.767146521371
 20
-838.8939938916624
 30
0.0
 10
1374.996655270457
 20
-839.5904518031402
 30
0.0
 10
1373.762961201345
 20
-839.8075070070066
 30
0.0
 10
1373.288739316074
 20
-839.8909412477656
 30
0.0
  0
SPLINE
  5
112
330
1F
100
AcDbEntity
  8
0
  6
Continuous
 62
     7
370
    25
100
AcDbSpline
210
0.0
220
0.0
230
1.0
 70
     8
 71
     3
 72
    12
 73
     8
 74
     0
 42
0.00000001
 43
0.00000001
 40
0.0
 40
0.0
 40
0.0
 40
0.0
 40
0.2141447207168284
 40
0.428277546675478
 40
0.6426637086789849
 40
0.857097919722134
 40
1.0
 40
1.0
 40
1.0
 40
1.0
 10
1421.512874616385
 20
-869.0906420451905
 30
0.0
 10
1420.72474965095
 20
-869.0161355330162
 30
0.0
 10
1419.14854349681
 20
-868.8671266471628
 30
0.0
 10
1417.038801805523
 20
-868.0530279731032
 30
0.0
 10
1415.459520231423
 20
-866.9087564997307
 30
0.0
 10
1414.558280117215
 20
-865.6698158604885
 30
0.0
 10
1414.560023982217
 20
-864.8617979560518
 30
0.0
 10
1414.560721369922
 20
-864.538664139951
 30
0.0
  0
SPLINE
  5
113
330
1F
100
AcDbEntity
  8
0
  6
Continuous
 62
     7
370
    25
100
AcDbSpline
210
0.0
220
0.0
230
1.0
 70
     8
 71
     3
 72
    13
 73
     9
 74
     0
 42
0.00000001
 43
0.00000001
 40
0.0
 40
0.0
 40
0.0
 40
0.0
 40
0.0045758275648084
 40
0.2206984989549196
 40
0.4363099549939147
 40
0.6513649564196027
 40
0.8661583360270423
 40
1.0
 40
1.0
 40
1.0
 40
1.0
 10
1428.463984591514
 20
-864.9898457316884
 30
0.0
 10
1428.466715139054
 20
-865.0001409178305
 30
0.0
 10
1428.598413227519
 20
-865.4966919997513
 30
0.0
 10
1428.12733678794
 20
-866.4851637787474
 30
0.0
 10
1427.023086470456
 20
-867.7422908316132
 30
0.0
 10
1425.203974691253
 20
-868.6520125686399
 30
0.0
 10
1423.268481487006
 20
-869.0822110485777
 30
0.0
 10
1421.999889515069
 20
-869.0883032408547
 30
0.0
 10
1421.512874616385
 20
-869.0906420451905
 30
0.0
  0
LWPOLYLINE
  5
114
330
1F
100
AcDbEntity
  8
0
  6
Continuous
 62
     7
370
    25
100
AcDbPolyline
 90
      226
 70
   128
 43
0.0
 10
1070.0401293133
 20
-1125.2436257265
 10
1070.1641899478
 20
-1115.0556235077
 10
1070.5362751125
 20
-1105.0188029462
 10
1071.1560946666
 20
-1095.1409904529
 10
1072.0231652934
 20
-1085.4298884487
 10
1073.1368108774
 20
-1075.8930693589
 10
1074.4961630312
 20
-1066.5379697081
 10
1076.100161773
 20
-1057.3718843217
 10
1077.9475563526
 20
-1048.4019606373
 10
1080.0369062275
 20
-1039.6351931315
 10
1082.3665821855
 20
-1031.078417866
 10
1084.9347676152
 20
-1022.7383071567
 10
1087.739459923
 20
-1014.621364371
 10
1090.7784720941
 20
-1006.7339188569
 10
1094.0494343984
 20
-999.082121007
 10
1097.5497962377
 20
-991.6719374631
 10
1101.2768281352
 20
-984.5091464635
 10
1105.2276238636
 20
-977.5993333371
 10
1109.3991027111
 20
-970.9478861483
 10
1113.7880118841
 20
-964.5599914957
 10
1118.3909290432
 20
-958.4406304672
 10
1123.2042649721
 20
-952.5945747565
 10
1128.2242663761
 20
-947.026382942
 10
1133.4470188093
 20
-941.7403969323
 10
1138.8684497263
 20
-936.7407385801
 10
1144.4843316584
 20
-932.0313064687
 10
1150.2902855098
 20
-927.6157728716
 10
1156.2817839724
 20
-923.497580889
 10
1162.4541550558
 20
-919.6799417632
 10
1168.8025857308
 20
-916.1658323744
 10
1175.3221256821
 20
-912.9579929192
 10
1182.0076911686
 20
-910.0589247745
 10
1188.8540689873
 20
-907.4708885464
 10
1195.8559205389
 20
-905.1959023077
 10
1203.00778599
 20
-903.2357400241
 10
1210.3040885313
 20
-901.5919301714
 10
1217.7391387253
 20
-900.2657545429
 10
1225.3071389436
 20
-899.2582472506
 10
1233.0021878873
 20
-898.5701939183
 10
1240.8182851887
 20
-898.2021310693
 10
1248.7493360903
 20
-898.1543457079
 10
1256.789156197
 20
-898.4268750958
 10
1264.9314762992
 20
-899.0195067227
 10
1273.1699472603
 20
-899.9317784722
 10
1281.4981449687
 20
-901.1629789825
 10
1289.9095753463
 20
-902.7121482002
 10
1298.3976794126
 20
-904.5780781298
 10
1306.9558383995
 20
-906.7593137754
 10
1315.577378912
 20
-909.254154275
 10
1324.2555781321
 20
-912.0606542269
 10
1332.9836690612
 20
-915.176625207
 10
1341.7548457965
 20
-918.5996374749
 10
1350.5622688382
 20
-922.3270218684
 10
1359.3990704228
 20
-926.3558718855
 10
1368.2583598782
 20
-930.68304595
 10
1377.133228997
 20
-935.3051698617
 10
1386.0167574232
 20
-940.2186394276
 10
1394.9020180485
 20
-945.4196232717
 10
1403.7820824141
 20
-950.9040658234
 10
1412.6500261128
 20
-956.6676904794
 10
1421.4989341889
 20
-962.7060029384
 10
1430.32190653
 20
-969.0142947062
 10
1439.1120632477
 20
-975.5876467664
 10
1447.8625500423
 20
-982.420933417
 10
1456.5665435473
 20
-989.5088262665
 10
1465.2172566505
 20
-996.8457983893
 10
1473.8079437859
 20
-1004.4261286352
 10
1482.3319061942
 20
-1012.2439060908
 10
1490.7824971458
 20
-1020.2930346883
 10
1499.1531271243
 20
-1028.5672379594
 10
1507.437268964
 20
-1037.0600639293
 10
1515.6284629404
 20
-1045.7648901477
 10
1523.7203218068
 20
-1054.674928853
 10
1531.706535775
 20
-1063.7832322651
 10
1539.5808774358
 20
-1073.0826980028
 10
1547.3372066142
 20
-1082.5660746227
 10
1554.9694751582
 20
-1092.2259672728
 10
1562.4717316542
 20
-1102.0548434595
 10
1569.8381260684
 20
-1112.0450389208
 10
1577.062914308
 20
-1122.1887636026
 10
1584.1404627004
 20
-1132.4781077338
 10
1591.0652523863
 20
-1142.9050479932
 10
1597.831883623
 20
-1153.4614537664
 10
1604.435079995
 20
-1164.1390934858
 10
1610.8696925283
 20
-1174.9296410492
 10
1617.1307037058
 20
-1185.8246823121
 10
1623.2132313792
 20
-1196.815721649
 10
1629.1125325765
 20
-1207.8941885782
 10
1634.8240071999
 20
-1219.0514444443
 10
1640.3432016134
 20
-1230.2787891549
 10
1645.6658121152
 20
-1241.5674679642
 10
1650.7876882938
 20
-1252.9086783002
 10
1655.7048362641
 20
-1264.2935766281
 10
1660.4134217821
 20
-1275.7132853467
 10
1664.9097732345
 20
-1287.1588997106
 10
1669.1903845016
 20
-1298.6214947741
 10
1673.2519176915
 20
-1310.0921323503
 10
1677.0912057428
 20
-1321.561867981
 10
1680.7052548943
 20
-1333.0217579116
 10
1684.091247019
 20
-1344.4628660644
 10
1687.2465418222
 20
-1355.8762710076
 10
1690.1686788998
 20
-1367.2530729113
 10
1692.8553796574
 20
-1378.5844004876
 10
1695.3045490865
 20
-1389.861417908
 10
1697.5142773983
 20
-1401.0753316937
 10
1699.4828415134
 20
-1412.217397572
 10
1701.2087064044
 20
-1423.278927295
 10
1702.6905262941
 20
-1434.2512954146
 10
1703.9271457037
 20
-1445.1259460083
 10
1704.9176003547
 20
-1455.8943993506
 10
1705.6611179202
 20
-1466.5482585255
 10
1706.1571186278
 20
-1477.0792159741
 10
1706.4052157109
 20
-1487.4790599726
 10
1706.4052157109
 20
-1497.7396810355
 10
1706.1571186278
 20
-1507.853078239
 10
1705.6611179202
 20
-1517.8113654603
 10
1704.9176003547
 20
-1527.6067775266
 10
1703.9271457037
 20
-1537.2316762701
 10
1702.6905262941
 20
-1546.6785564844
 10
1701.2087064044
 20
-1555.9400517764
 10
1699.4828415134
 20
-1565.0089403107
 10
1697.5142773983
 20
-1573.8781504409
 10
1695.3045490865
 20
-1582.5407662236
 10
1692.8553796574
 20
-1590.9900328116
 10
1690.1686788998
 20
-1599.2193617211
 10
1687.2465418222
 20
-1607.2223359688
 10
1684.091247019
 20
-1614.9927150762
 10
1680.7052548943
 20
-1622.5244399355
 10
1677.0912057428
 20
-1629.811637534
 10
1673.2519176915
 20
-1636.8486255344
 10
1669.1903845015
 20
-1643.6299167051
 10
1664.9097732345
 20
-1650.1502231991
 10
1660.4134217821
 20
-1656.4044606777
 10
1655.7048362641
 20
-1662.3877522746
 10
1650.7876882938
 20
-1668.0954323989
 10
1645.6658121152
 20
-1673.5230503735
 10
1640.3432016134
 20
-1678.666373905
 10
1634.8240071999
 20
-1683.5213923845
 10
1629.1125325765
 20
-1688.0843200147
 10
1623.2132313792
 20
-1692.3515987617
 10
1617.1307037058
 20
-1696.3199011301
 10
1610.8696925283
 20
-1699.986132757
 10
1604.4350799949
 20
-1703.3474348252
 10
1597.831883623
 20
-1706.4011862926
 10
1591.0652523863
 20
-1709.1450059355
 10
1584.1404627004
 20
-1711.576754206
 10
1577.062914308
 20
-1713.6945349
 10
1569.8381260684
 20
-1715.4966966356
 10
1562.4717316542
 20
-1716.9818341414
 10
1554.9694751582
 20
-1718.148789352
 10
1547.3372066142
 20
-1718.9966523106
 10
1539.5808774358
 20
-1719.5247618792
 10
1531.706535775
 20
-1719.732706254
 10
1523.7203218068
 20
-1719.6203232861
 10
1515.6284629404
 20
-1719.1877006084
 10
1507.437268964
 20
-1718.4351755671
 10
1499.1531271242
 20
-1717.3633349584
 10
1490.7824971458
 20
-1715.9730145716
 10
1482.3319061942
 20
-1714.2652985366
 10
1473.8079437859
 20
-1712.241518479
 10
1465.2172566505
 20
-1709.9032524817
 10
1456.5665435473
 20
-1707.252323854
 10
1447.8625500423
 20
-1704.2907997105
 10
1439.1120632477
 20
-1701.0209893585
 10
1430.32190653
 20
-1697.4454424978
 10
1421.4989341889
 20
-1693.5669472324
 10
1412.6500261128
 20
-1689.388527896
 10
1403.7820824141
 20
-1684.9134426945
 10
1394.9020180485
 20
-1680.1451811647
 10
1386.0167574232
 20
-1675.0874614535
 10
1377.133228997
 20
-1669.7442274185
 10
1368.2583598782
 20
-1664.119645553
 10
1359.3990704228
 20
-1658.2181017367
 10
1350.5622688382
 20
-1652.0441978159
 10
1341.7548457965
 20
-1645.6027480152
 10
1332.9836690612
 20
-1638.8987751834
 10
1324.2555781321
 20
-1631.9375068768
 10
1315.577378912
 20
-1624.7243712832
 10
1306.9558383995
 20
-1617.2649929885
 10
1298.3976794126
 20
-1609.5651885917
 10
1289.9095753463
 20
-1601.6309621685
 10
1281.4981449687
 20
-1593.4685005902
 10
1273.1699472603
 20
-1585.0841686987
 10
1264.9314762992
 20
-1576.4845043437
 10
1256.789156197
 20
-1567.676213285
 10
1248.7493360903
 20
-1558.6661639628
 10
1240.8182851887
 20
-1549.4613821426
 10
1233.0021878873
 20
-1540.0690454365
 10
1225.3071389436
 20
-1530.496477706
 10
1217.7391387253
 20
-1520.7511433514
 10
1210.3040885312
 20
-1510.8406414915
 10
1203.00778599
 20
-1500.7727000374
 10
1195.8559205389
 20
-1490.555169667
 10
1188.8540689873
 20
-1480.1960177031
 10
1182.0076911686
 20
-1469.7033219009
 10
1175.3221256821
 20
-1459.0852641488
 10
1168.8025857308
 20
-1448.350124089
 10
1162.4541550558
 20
-1437.5062726607
 10
1156.2817839724
 20
-1426.5621655731
 10
1150.2902855098
 20
-1415.5263367117
 10
1144.4843316584
 20
-1404.4073914839
 10
1138.8684497263
 20
-1393.2140001086
 10
1133.4470188093
 20
-1381.9548908558
 10
1128.2242663761
 20
-1370.6388432402
 10
1123.2042649721
 20
-1359.2746811754
 10
1118.3909290432
 20
-1347.8712660929
 10
1113.7880118841
 20
-1336.437490033
 10
1109.3991027111
 20
-1324.9822687103
 10
1105.2276238636
 20
-1313.5145345617
 10
1101.2768281352
 20
-1302.0432297814
 10
1097.5497962377
 20
-1290.5772993478
 10
1094.0494343984
 20
-1279.1256840486
 10
1090.7784720941
 20
-1267.6973135088
 10
1087.739459923
 20
-1256.3010992281
 10
1084.9347676152
 20
-1244.9459276315
 10
1082.3665821855
 20
-1233.6406531403
 10
1080.0369062275
 20
-1222.3940912675
 10
1077.9475563526
 20
-1211.2150117437
 10
1076.100161773
 20
-1200.1121316788
 10
1074.4961630312
 20
-1189.0941087648
 10
1073.1368108774
 20
-1178.1695345244
 10
1072.0231652934
 20
-1167.3469276121
 10
1071.1560946666
 20
-1156.6347271712
 10
1070.5362751125
 20
-1146.0412862532
 10
1070.1641899478
 20
-1135.5748653049
 10
1070.0401293133
 20
-1125.2436257265
  0
LWPOLYLINE
  5
115
330
1F
100
AcDbEntity
  8
0
  6
Continuous
 62
     7
370
    25
100
AcDbPolyline
 90
       40
 70
   128
 43
0.0
 10
1695.9027978849
 20
-1392.7864928976
 10
1695.8645680521
 20
-1392.7527622372
 10
1687.3064090652
 20
-1385.0529578404
 10
1678.8183049989
 20
-1377.1187314173
 10
1670.4068746213
 20
-1368.956269839
 10
1662.0786769129
 20
-1360.5719379474
 10
1653.8402059518
 20
-1351.9722735925
 10
1645.6978858496
 20
-1343.1639825337
 10
1637.6580657429
 20
-1334.1539332116
 10
1629.7270148413
 20
-1324.9491513914
 10
1621.9109175399
 20
-1315.5568146852
 10
1614.2158685962
 20
-1305.9842469547
 10
1606.6478683779
 20
-1296.2389126002
 10
1599.2128181838
 20
-1286.3284107403
 10
1591.9165156426
 20
-1276.2604692861
 10
1584.7646501915
 20
-1266.0429389157
 10
1577.7627986399
 20
-1255.6837869519
 10
1570.9164208212
 20
-1245.1910911496
 10
1564.2308553347
 20
-1234.5730333976
 10
1557.7113153834
 20
-1223.8378933378
 10
1551.3628847084
 20
-1212.9940419095
 10
1545.190513625
 20
-1202.0499348219
 10
1539.1990151624
 20
-1191.0141059605
 10
1533.393061311
 20
-1179.8951607326
 10
1527.7771793789
 20
-1168.7017693574
 10
1522.3557484619
 20
-1157.4426601046
 10
1517.1329960287
 20
-1146.126612489
 10
1512.1129946247
 20
-1134.7624504241
 10
1507.2996586958
 20
-1123.3590353417
 10
1502.6967415367
 20
-1111.9252592818
 10
1498.3078323637
 20
-1100.4700379591
 10
1494.1363535162
 20
-1089.0023038105
 10
1490.1855577878
 20
-1077.5309990302
 10
1486.4585258903
 20
-1066.0650685966
 10
1482.958164051
 20
-1054.6134532973
 10
1479.6872017467
 20
-1043.1850827576
 10
1476.6481895756
 20
-1031.7888684769
 10
1473.8434972678
 20
-1020.4336968803
 10
1471.2753118381
 20
-1009.1284223891
 10
1469.4822934622
 20
-1000.5721781244
  0
LWPOLYLINE
  5
116
330
1F
100
AcDbEntity
  8
0
  6
Continuous
 62
     7
370
    25
100
AcDbPolyline
 90
      121
 70
   128
 43
0.0
 10
1500.4227640698
 20
-601.6085512871
 10
1506.2759956921
 20
-598.4390560944
 10
1513.840722279
 20
-594.7310971157
 10
1521.5859057749
 20
-591.3587486574
 10
1529.5062380179
 20
-588.3243219588
 10
1537.5962908078
 20
-585.6298966643
 10
1545.8505196267
 20
-583.2773193984
 10
1554.2632674384
 20
-581.2682025
 10
1562.8287685657
 20
-579.6039229176
 10
1571.5411526421
 20
-578.2856212653
 10
1580.3944486347
 20
-577.314201041
 10
1589.3825889366
 20
-576.6903280078
 10
1598.4994135256
 20
-576.414429737
 10
1607.7386741853
 20
-576.4866953156
 10
1617.094038788
 20
-576.9070752163
 10
1626.5590956342
 20
-577.6752813317
 10
1636.1273578466
 20
-578.7907871717
 10
1645.7922678164
 20
-580.2528282244
 10
1655.547201697
 20
-582.0604024798
 10
1665.3854739439
 20
-584.2122711169
 10
1675.3003418968
 20
-586.7069593523
 10
1685.2850104005
 20
-589.5427574514
 10
1695.332636462
 20
-592.7177218998
 10
1705.4363339401
 20
-596.2296767354
 10
1715.5891782654
 20
-600.0762150399
 10
1725.7842111855
 20
-604.2547005879
 10
1736.0144455341
 20
-608.7622696544
 10
1746.2728700195
 20
-613.5958329765
 10
1756.5524540301
 20
-618.7520778714
 10
1766.8461524525
 20
-624.2274705064
 10
1777.1469104999
 20
-630.0182583209
 10
1787.4476685472
 20
-636.1204725982
 10
1797.7413669696
 20
-642.5299311855
 10
1808.0209509802
 20
-649.2422413599
 10
1818.2793754656
 20
-656.2528028395
 10
1828.5096098142
 20
-663.5568109354
 10
1838.7046427343
 20
-671.1492598455
 10
1848.8574870596
 20
-679.0249460844
 10
1858.9611845377
 20
-687.1784720503
 10
1869.0088105992
 20
-695.6042497237
 10
1878.9934791029
 20
-704.2965044975
 10
1888.9083470558
 20
-713.2492791344
 10
1898.7466193027
 20
-722.45643785
 10
1908.5015531833
 20
-731.9116705174
 10
1918.1664631531
 20
-741.6084969927
 10
1927.7347253655
 20
-751.5402715552
 10
1937.1997822117
 20
-761.7001874628
 10
1946.5551468145
 20
-772.0812816166
 10
1955.7944074741
 20
-782.6764393332
 10
1964.9112320631
 20
-793.4783992208
 10
1973.899372365
 20
-804.4797581557
 10
1982.7526683576
 20
-815.6729763559
 10
1991.465052434
 20
-827.0503825488
 10
2000.0305535613
 20
-838.6041792285
 10
2008.443301373
 20
-850.326448
 10
2016.6975301919
 20
-862.2091550056
 10
2024.7875829818
 20
-874.2441564317
 10
2032.7079152248
 20
-886.4232040894
 10
2040.4530987207
 20
-898.7379510677
 10
2048.0178253076
 20
-911.1799574542
 10
2055.3969104999
 20
-923.7406961194
 10
2062.585297041
 20
-936.4115585601
 10
2069.5780583699
 20
-949.1838608004
 10
2076.3704019974
 20
-962.0488493423
 10
2082.9576727903
 20
-974.9977071651
 10
2089.3353561623
 20
-988.0215597686
 10
2095.4990811679
 20
-1001.1114812547
 10
2101.4446234977
 20
-1014.2585004452
 10
2107.1679083741
 20
-1027.4536070297
 10
2112.6650133434
 20
-1040.6877577413
 10
2117.9321709646
 20
-1053.9518825543
 10
2122.9657713908
 20
-1067.2368908999
 10
2127.7623648438
 20
-1080.5336778971
 10
2132.318663978
 20
-1093.8331305923
 10
2136.6315461337
 20
-1107.1261342049
 10
2140.6980554767
 20
-1120.4035783742
 10
2144.5154050247
 20
-1133.6563634033
 10
2148.0809785571
 20
-1146.8754064952
 10
2151.3923324078
 20
-1160.0516479781
 10
2154.4471971403
 20
-1173.1760575143
 10
2157.2434791029
 20
-1186.2396402891
 10
2159.7792618636
 20
-1199.2334431753
 10
2162.0528075236
 20
-1212.1485608696
 10
2164.0625579083
 20
-1224.9761419953
 10
2165.8071356351
 20
-1237.7073951692
 10
2167.2853450576
 20
-1250.3335950263
 10
2168.4961730849
 20
-1262.8460881998
 10
2169.4387898759
 20
-1275.2362992519
 10
2170.1125494083
 20
-1287.4957365509
 10
2170.5169899208
 20
-1299.6159980909
 10
2170.6518342302
 20
-1311.58877725
 10
2170.5169899208
 20
-1323.4058684834
 10
2170.1125494083
 20
-1335.0591729471
 10
2169.4387898759
 20
-1346.5407040483
 10
2168.4961730849
 20
-1357.8425929191
 10
2167.2853450576
 20
-1368.9570938093
 10
2165.8071356351
 20
-1379.8765893954
 10
2164.0625579083
 20
-1390.5935960003
 10
2162.0528075236
 20
-1401.1007687232
 10
2159.7792618636
 20
-1411.3909064727
 10
2157.2434791029
 20
-1421.4569569024
 10
2154.4471971403
 20
-1431.2920212441
 10
2151.3923324078
 20
-1440.889359036
 10
2148.0809785571
 20
-1450.2423927422
 10
2144.5154050247
 20
-1459.3447122606
 10
2140.6980554767
 20
-1468.190079316
 10
2136.6315461337
 20
-1476.7724317357
 10
2132.318663978
 20
-1485.085887604
 10
2127.7623648438
 20
-1493.1247492937
 10
2122.9657713908
 20
-1500.8835073703
 10
2117.9321709646
 20
-1508.3568443687
 10
2112.6650133434
 20
-1515.539638437
 10
2107.1679083741
 20
-1522.426966847
 10
2101.4446234977
 20
-1529.0141093677
 10
2095.4990811679
 20
-1535.2965515008
 10
2089.3353561623
 20
-1541.2699875742
 10
2082.9576727903
 20
-1546.9303236932
 10
2076.3704019974
 20
-1552.2736805461
 10
2069.5780583699
 20
-1557.2963960632
 10
2062.585297041
 20
-1561.9950279259
 10
2056.8694986694
 20
-1565.5069249662
  0
SPLINE
  5
117
330
1F
100
AcDbEntity
  8
0
  6
Continuous
 62
     7
370
    25
100
AcDbSpline
210
0.0
220
0.0
230
1.0
 70
     8
 71
     3
 72
    12
 73
     8
 74
     0
 42
0.00000001
 43
0.00000001
 40
0.0
 40
0.0
 40
0.0
 40
0.0
 40
0.2141288381123232
 40
0.4282498363556727
 40
0.6425118725862407
 40
0.8566238401858658
 40
0.9999999999999999
 40
0.9999999999999999
 40
0.9999999999999999
 40
0.9999999999999999
 10
1793.464194888563
 20
-654.317273811497
 30
0.0
 10
1792.675434695075
 20
-654.2375722771227
 30
0.0
 10
1791.097943186863
 20
-654.078172126475
 30
0.0
 10
1788.984800969542
 20
-653.2576750378131
 30
0.0
 10
1787.402171394995
 20
-652.1154919923397
 30
0.0
 10
1786.497827555411
 20
-650.8841008462032
 30
0.0
 10
1786.498150167258
 20
-650.0854862643216
 30
0.0
 10
1786.498279555744
 20
-649.7651894960062
 30
0.0
  0
SPLINE
  5
118
330
1F
100
AcDbEntity
  8
0
  6
Continuous
 62
     7
370
    25
100
AcDbSpline
210
0.0
220
0.0
230
1.0
 70
     8
 71
     3
 72
    13
 73
     9
 74
     0
 42
0.00000001
 43
0.00000001
 40
0.0
 40
0.0
 40
0.0
 40
0.0
 40
0.0038987545532083
 40
0.2199951092389007
 40
0.4355529320922991
 40
0.6506817409254939
 40
0.8657696431805959
 40
1.0
 40
1.0
 40
1.0
 40
1.0
 10
1800.40335093724
 20
-650.3332875019589
 30
0.0
 10
1800.405683955959
 20
-650.3419543383602
 30
0.0
 10
1800.537329254724
 20
-650.8309981072986
 30
0.0
 10
1800.068254026146
 20
-651.8000439731946
 30
0.0
 10
1798.968579494876
 20
-653.0303555702088
 30
0.0
 10
1797.153714267252
 20
-653.913016867175
 30
0.0
 10
1795.220467921121
 20
-654.322525571751
 30
0.0
 10
1793.951726334386
 20
-654.3187316703961
 30
0.0
 10
1793.464194888563
 20
-654.317273811497
 30
0.0
  0
SPLINE
  5
119
330
1F
100
AcDbEntity
  8
0
  6
Continuous
 62
     7
370
    25
100
AcDbSpline
210
0.0
220
0.0
230
1.0
 70
     8
 71
     3
 72
    13
 73
     9
 74
     0
 42
0.00000001
 43
0.00000001
 40
0.0
 40
0.0
 40
0.0
 40
0.0
 40
0.1912225576779542
 40
0.3824365311720344
 40
0.5738737733773488
 40
0.7656522781203677
 40
0.9576410253320877
 40
0.9999999999999999
 40
0.9999999999999999
 40
0.9999999999999999
 40
0.9999999999999999
 10
1745.245366112192
 20
-625.126435571099
 30
0.0
 10
1744.457776977159
 20
-625.1873878539295
 30
0.0
 10
1742.882634062804
 20
-625.3092896833775
 30
0.0
 10
1740.601099281125
 20
-624.9510254675447
 30
0.0
 10
1738.685065696037
 20
-624.2360690499683
 30
0.0
 10
1737.419935749143
 20
-623.2067685854682
 30
0.0
 10
1736.84419375814
 20
-622.304859697063
 30
0.0
 10
1736.96042630803
 20
-621.7932838320619
 30
0.0
 10
1736.981435650885
 20
-621.7008151324198
 30
0.0
  0
SPLINE
  5
11A
330
1F
100
AcDbEntity
  8
0
  6
Continuous
 62
     7
370
    25
100
AcDbSpline
210
0.0
220
0.0
230
1.0
 70
     8
 71
     3
 72
    12
 73
     8
 74
     0
 42
0.00000001
 43
0.00000001
 40
0.0
 40
0.0
 40
0.0
 40
0.0
 40
0.1142001062372589
 40
0.3589328308784818
 40
0.6033379900209533
 40
0.8475258765639404
 40
1.0
 40
1.0
 40
1.0
 40
1.0
 10
1750.813654498354
 20
-621.2530225457579
 30
0.0
 10
1750.834920443346
 20
-621.4512020577168
 30
0.0
 10
1750.901759661705
 20
-622.074083555758
 30
0.0
 10
1750.163455669301
 20
-623.1093715846936
 30
0.0
 10
1748.721660611312
 20
-624.1662338019863
 30
0.0
 10
1746.953139052343
 20
-624.8413308013161
 30
0.0
 10
1745.719549408888
 20
-625.0472728695124
 30
0.0
 10
1745.245366112192
 20
-625.1264355710991
 30
0.0
  0
LWPOLYLINE
  5
11B
330
1F
100
AcDbEntity
  8
0
  6
Continuous
 62
     7
370
    25
100
AcDbPolyline
 90
       29
 70
   128
 43
0.0
 10
1426.4219470313
 20
-858.2038611251
 10
1427.3992689576
 20
-858.9113404551
 10
1428.0793828752
 20
-859.7266272083
 10
1428.4281850323
 20
-860.6088395028
 10
1428.4281850323
 20
-861.5137395302
 10
1428.0793828752
 20
-862.3959518247
 10
1427.3992689576
 20
-863.211238578
 10
1426.4219470313
 20
-863.9187179079
 10
1425.1964240986
 20
-864.4829138467
 10
1423.7841529967
 20
-864.8755352541
 10
1422.2559508957
 20
-865.0768944534
 10
1420.6884482303
 20
-865.0768944534
 10
1419.1602461293
 20
-864.8755352541
 10
1417.7479750274
 20
-864.4829138467
 10
1416.5224520947
 20
-863.9187179079
 10
1415.5451301684
 20
-863.211238578
 10
1414.8650162509
 20
-862.3959518247
 10
1414.5162140938
 20
-861.5137395302
 10
1414.5162140938
 20
-860.6088395028
 10
1414.8650162509
 20
-859.7266272083
 10
1415.5451301684
 20
-858.9113404551
 10
1416.5224520947
 20
-858.2038611251
 10
1417.7479750274
 20
-857.6396651863
 10
1419.1602461293
 20
-857.2470437789
 10
1420.6884482303
 20
-857.0456845797
 10
1422.2559508957
 20
-857.0456845797
 10
1423.7841529967
 20
-857.2470437789
 10
1425.1964240986
 20
-857.6396651863
 10
1426.4219470313
 20
-858.2038611251
  0
LWPOLYLINE
  5
11C
330
1F
100
AcDbEntity
  8
0
  6
Continuous
 62
     7
370
    25
100
AcDbPolyline
 90
       24
 70
   128
 43
0.0
 10
1425.007733469
 20
-859.020269237
 10
1425.8305019132
 20
-859.6466164868
 10
1426.33003501
 20
-860.3778835636
 10
1426.4692846749
 20
-861.1598357335
 10
1426.2379233971
 20
-861.9344791813
 10
1425.6531101843
 20
-862.6443621462
 10
1424.7582179571
 20
-863.2368358563
 10
1423.6196167782
 20
-863.6679592469
 10
1422.3217514882
 20
-863.9057578682
 10
1420.9608788183
 20
-863.9325952845
 10
1419.637928469
 20
-863.7464810873
 10
1418.4510176154
 20
-863.3612185153
 10
1417.4881740059
 20
-862.8053807308
 10
1416.8208073463
 20
-862.1201916798
 10
1416.4984131687
 20
-861.3564686994
 10
1416.5449019744
 20
-860.5708536294
 10
1416.9568259014
 20
-859.8216119455
 10
1417.7036344364
 20
-859.1643114759
 10
1418.7299402068
 20
-858.6477011895
 10
1419.9596268086
 20
-858.3100957079
 10
1421.3014940121
 20
-858.1765336852
 10
1422.6560216654
 20
-858.2569208056
 10
1423.9227506489
 20
-858.5452951242
 10
1425.007733469
 20
-859.020269237
  0
SPLINE
  5
11D
330
1F
100
AcDbEntity
  8
0
  6
Continuous
 62
     7
370
    25
100
AcDbSpline
210
0.0
220
0.0
230
1.0
 70
     8
 71
     3
 72
    13
 73
     9
 74
     0
 42
0.00000001
 43
0.00000001
 40
0.0
 40
0.0
 40
0.0
 40
0.0
 40
0.0680812366511682
 40
0.2567846542725182
 40
0.4454039112304373
 40
0.6340994013062515
 40
0.8230274668496224
 40
1.0
 40
1.0
 40
1.0
 40
1.0
 10
1417.543444318211
 20
-862.7920732137076
 30
0.0
 10
1417.651646916606
 20
-862.690038329555
 30
0.0
 10
1418.05975887501
 20
-862.305189379394
 30
0.0
 10
1419.215950164128
 20
-861.8816172081279
 30
0.0
 10
1420.828992112792
 20
-861.6102714094127
 30
0.0
 10
1422.534750253348
 20
-861.7106190648099
 30
0.0
 10
1424.113977900858
 20
-862.1233846346341
 30
0.0
 10
1424.886457914163
 20
-862.6251058356147
 30
0.0
 10
1425.260077813257
 20
-862.8677697508684
 30
0.0
  0
LWPOLYLINE
  5
11E
330
1F
100
AcDbEntity
  8
0
  6
Continuous
 62
     7
370
    25
100
AcDbPolyline
 90
       29
 70
   128
 43
0.0
 10
1367.0249774117
 20
-835.3444339941
 10
1366.0476554854
 20
-834.6369546642
 10
1365.3675415678
 20
-833.8216679109
 10
1365.0187394107
 20
-832.9394556164
 10
1365.0187394107
 20
-832.034555589
 10
1365.3675415678
 20
-831.1523432945
 10
1366.0476554854
 20
-830.3370565413
 10
1367.0249774117
 20
-829.6295772113
 10
1368.2505003444
 20
-829.0653812725
 10
1369.6627714463
 20
-828.6727598651
 10
1371.1909735472
 20
-828.4714006659
 10
1372.7584762127
 20
-828.4714006659
 10
1374.2866783136
 20
-828.6727598651
 10
1375.6989494156
 20
-829.0653812725
 10
1376.9244723483
 20
-829.6295772113
 10
1377.9017942746
 20
-830.3370565413
 10
1378.5819081921
 20
-831.1523432945
 10
1378.9307103492
 20
-832.034555589
 10
1378.9307103492
 20
-832.9394556164
 10
1378.5819081921
 20
-833.8216679109
 10
1377.9017942746
 20
-834.6369546642
 10
1376.9244723483
 20
-835.3444339941
 10
1375.6989494156
 20
-835.9086299329
 10
1374.2866783136
 20
-836.3012513403
 10
1372.7584762127
 20
-836.5026105396
 10
1371.1909735472
 20
-836.5026105396
 10
1369.6627714463
 20
-836.3012513403
 10
1368.2505003444
 20
-835.9086299329
 10
1367.0249774117
 20
-835.3444339941
  0
LWPOLYLINE
  5
11F
330
1F
100
AcDbEntity
  8
0
  6
Continuous
 62
     7
370
    25
100
AcDbPolyline
 90
       24
 70
   128
 43
0.0
 10
1368.439190974
 20
-834.5280258823
 10
1367.6164225298
 20
-833.9016786324
 10
1367.116889433
 20
-833.1704115557
 10
1366.9776397681
 20
-832.3884593858
 10
1367.2090010459
 20
-831.613815938
 10
1367.7938142587
 20
-830.903932973
 10
1368.6887064859
 20
-830.3114592629
 10
1369.8273076648
 20
-829.8803358724
 10
1371.1251729548
 20
-829.642537251
 10
1372.4860456247
 20
-829.6156998348
 10
1373.808995974
 20
-829.8018140319
 10
1374.9959068276
 20
-830.187076604
 10
1375.958750437
 20
-830.7429143884
 10
1376.6261170967
 20
-831.4281034395
 10
1376.9485112743
 20
-832.1918264199
 10
1376.9020224685
 20
-832.9774414899
 10
1376.4900985416
 20
-833.7266831738
 10
1375.7432900066
 20
-834.3839836433
 10
1374.7169842362
 20
-834.9005939297
 10
1373.4872976344
 20
-835.2381994113
 10
1372.1454304309
 20
-835.371761434
 10
1370.7909027776
 20
-835.2913743136
 10
1369.5241737941
 20
-835.002999995
 10
1368.439190974
 20
-834.5280258823
  0
SPLINE
  5
120
330
1F
100
AcDbEntity
  8
0
  6
Continuous
 62
     7
370
    25
100
AcDbSpline
210
0.0
220
0.0
230
1.0
 70
     8
 71
     3
 72
    13
 73
     9
 74
     0
 42
0.00000001
 43
0.00000001
 40
0.0
 40
0.0
 40
0.0
 40
0.0
 40
0.1511248152750555
 40
0.3524319478424122
 40
0.5540737106325075
 40
0.7562113597978669
 40
0.9587326674247467
 40
1.0
 40
1.0
 40
1.0
 40
1.0
 10
1368.431041972303
 20
-834.4514954166948
 30
0.0
 10
1368.733051698481
 20
-834.2780762443099
 30
0.0
 10
1369.437356123074
 20
-833.8736525458876
 30
0.0
 10
1370.925765700562
 20
-833.5152689029211
 30
0.0
 10
1372.6301533577
 20
-833.3928742029576
 30
0.0
 10
1374.2372829996
 20
-833.6091724621408
 30
0.0
 10
1375.335840596231
 20
-833.9334589966433
 30
0.0
 10
1375.703046182535
 20
-834.2295494687008
 30
0.0
 10
1375.76520492398
 20
-834.2796701961173
 30
0.0
  0
LWPOLYLINE
  5
121
330
1F
100
AcDbEntity
  8
0
  6
Continuous
 62
     7
370
    25
100
AcDbPolyline
 90
       29
 70
   128
 43
0.0
 10
1788.4606189988
 20
-649.2033844985
 10
1787.4832970725
 20
-648.4959051686
 10
1786.803183155
 20
-647.6806184153
 10
1786.4543809979
 20
-646.7984061209
 10
1786.4543809979
 20
-645.8935060934
 10
1786.803183155
 20
-645.011293799
 10
1787.4832970725
 20
-644.1960070457
 10
1788.4606189988
 20
-643.4885277158
 10
1789.6861419315
 20
-642.924331777
 10
1791.0984130335
 20
-642.5317103695
 10
1792.6266151344
 20
-642.3303511703
 10
1794.1941177999
 20
-642.3303511703
 10
1795.7223199008
 20
-642.5317103695
 10
1797.1345910028
 20
-642.924331777
 10
1798.3601139355
 20
-643.4885277158
 10
1799.3374358617
 20
-644.1960070457
 10
1800.0175497793
 20
-645.011293799
 10
1800.3663519364
 20
-645.8935060934
 10
1800.3663519364
 20
-646.7984061209
 10
1800.0175497793
 20
-647.6806184153
 10
1799.3374358617
 20
-648.4959051686
 10
1798.3601139355
 20
-649.2033844985
 10
1797.1345910028
 20
-649.7675804373
 10
1795.7223199008
 20
-650.1602018448
 10
1794.1941177999
 20
-650.361561044
 10
1792.6266151344
 20
-650.361561044
 10
1791.0984130335
 20
-650.1602018448
 10
1789.6861419315
 20
-649.7675804373
 10
1788.4606189988
 20
-649.2033844985
  0
LWPOLYLINE
  5
122
330
1F
100
AcDbEntity
  8
0
  6
Continuous
 62
     7
370
    25
100
AcDbPolyline
 90
       24
 70
   128
 43
0.0
 10
1789.8748325612
 20
-648.3869763867
 10
1789.052064117
 20
-647.7606291369
 10
1788.5525310202
 20
-647.0293620601
 10
1788.4132813553
 20
-646.2474098902
 10
1788.6446426331
 20
-645.4727664424
 10
1789.2294558459
 20
-644.7628834774
 10
1790.1243480731
 20
-644.1704097673
 10
1791.262949252
 20
-643.7392863768
 10
1792.560814542
 20
-643.5014877555
 10
1793.9216872119
 20
-643.4746503392
 10
1795.2446375612
 20
-643.6607645364
 10
1796.4315484147
 20
-644.0460271084
 10
1797.3943920242
 20
-644.6018648928
 10
1798.0617586838
 20
-645.2870539439
 10
1798.3841528614
 20
-646.0507769243
 10
1798.3376640557
 20
-646.8363919943
 10
1797.9257401288
 20
-647.5856336782
 10
1797.1789315938
 20
-648.2429341477
 10
1796.1526258234
 20
-648.7595444341
 10
1794.9229392215
 20
-649.0971499158
 10
1793.5810720181
 20
-649.2307119385
 10
1792.2265443648
 20
-649.150324818
 10
1790.9598153813
 20
-648.8619504995
 10
1789.8748325612
 20
-648.3869763867
  0
SPLINE
  5
123
330
1F
100
AcDbEntity
  8
0
  6
Continuous
 62
     7
370
    25
100
AcDbSpline
210
0.0
220
0.0
230
1.0
 70
     8
 71
     3
 72
    13
 73
     9
 74
     0
 42
0.00000001
 43
0.00000001
 40
0.0
 40
0.0
 40
0.0
 40
0.0
 40
0.044259849931998
 40
0.2387007362054854
 40
0.4332028172043614
 40
0.6279087166420694
 40
0.8229090925203584
 40
0.9999999999999999
 40
0.9999999999999999
 40
0.9999999999999999
 40
0.9999999999999999
 10
1789.589542373091
 20
-647.9749208440406
 30
0.0
 10
1789.658294467106
 20
-647.9123939991811
 30
0.0
 10
1790.02908595154
 20
-647.575176319422
 30
0.0
 10
1791.131526164135
 20
-647.1952991623925
 30
0.0
 10
1792.735652676787
 20
-646.9326073880641
 30
0.0
 10
1794.443768526193
 20
-647.0416131153272
 30
0.0
 10
1796.013355192422
 20
-647.45209146139
 30
0.0
 10
1796.780147742415
 20
-647.944169441563
 30
0.0
 10
1797.145090418044
 20
-648.1783661023211
 30
0.0
  0
LWPOLYLINE
  5
124
330
1F
100
AcDbEntity
  8
0
  6
Continuous
 62
     7
370
    25
100
AcDbPolyline
 90
       29
 70
   128
 43
0.0
 10
1748.8626392524
 20
-614.914243802
 10
1749.8399611787
 20
-615.6217231319
 10
1750.5200750962
 20
-616.4370098852
 10
1750.8688772533
 20
-617.3192221796
 10
1750.8688772533
 20
-618.2241222071
 10
1750.5200750962
 20
-619.1063345015
 10
1749.8399611787
 20
-619.9216212548
 10
1748.8626392524
 20
-620.6291005847
 10
1747.6371163197
 20
-621.1932965235
 10
1746.2248452178
 20
-621.585917931
 10
1744.6966431168
 20
-621.7872771302
 10
1743.1291404514
 20
-621.7872771302
 10
1741.6009383504
 20
-621.585917931
 10
1740.1886672485
 20
-621.1932965235
 10
1738.9631443158
 20
-620.6291005847
 10
1737.9858223895
 20
-619.9216212548
 10
1737.3057084719
 20
-619.1063345015
 10
1736.9569063148
 20
-618.2241222071
 10
1736.9569063148
 20
-617.3192221796
 10
1737.3057084719
 20
-616.4370098852
 10
1737.9858223895
 20
-615.6217231319
 10
1738.9631443158
 20
-614.914243802
 10
1740.1886672485
 20
-614.3500478632
 10
1741.6009383504
 20
-613.9574264557
 10
1743.1291404514
 20
-613.7560672565
 10
1744.6966431168
 20
-613.7560672565
 10
1746.2248452178
 20
-613.9574264557
 10
1747.6371163197
 20
-614.3500478632
 10
1748.8626392524
 20
-614.914243802
  0
LWPOLYLINE
  5
125
330
1F
100
AcDbEntity
  8
0
  6
Continuous
 62
     7
370
    25
100
AcDbPolyline
 90
       24
 70
   128
 43
0.0
 10
1747.44842569
 20
-615.7306519138
 10
1748.2711941342
 20
-616.3569991636
 10
1748.7707272311
 20
-617.0882662404
 10
1748.9099768959
 20
-617.8702184103
 10
1748.6786156182
 20
-618.6448618581
 10
1748.0938024054
 20
-619.3547448231
 10
1747.1989101782
 20
-619.9472185332
 10
1746.0603089992
 20
-620.3783419237
 10
1744.7624437092
 20
-620.616140545
 10
1743.4015710394
 20
-620.6429779613
 10
1742.07862069
 20
-620.4568637641
 10
1740.8917098365
 20
-620.0716011921
 10
1739.928866227
 20
-619.5157634077
 10
1739.2614995674
 20
-618.8305743566
 10
1738.9391053898
 20
-618.0668513762
 10
1738.9855941955
 20
-617.2812363062
 10
1739.3975181225
 20
-616.5319946223
 10
1740.1443266574
 20
-615.8746941528
 10
1741.1706324278
 20
-615.3580838664
 10
1742.4003190297
 20
-615.0204783848
 10
1743.7421862332
 20
-614.886916362
 10
1745.0967138864
 20
-614.9673034825
 10
1746.36344287
 20
-615.2556778011
 10
1747.44842569
 20
-615.7306519138
  0
SPLINE
  5
126
330
1F
100
AcDbEntity
  8
0
  6
Continuous
 62
     7
370
    25
100
AcDbSpline
210
0.0
220
0.0
230
1.0
 70
     8
 71
     3
 72
    13
 73
     9
 74
     0
 42
0.00000001
 43
0.00000001
 40
0.0
 40
0.0
 40
0.0
 40
0.0
 40
0.1545654094743953
 40
0.3559642346912725
 40
0.5575125369800809
 40
0.7594814931838453
 40
0.961900133909738
 40
1.0
 40
1.0
 40
1.0
 40
1.0
 10
1740.33341258438
 20
-619.754732698142
 30
0.0
 10
1740.640552754592
 20
-619.5817943259211
 30
0.0
 10
1741.347896758688
 20
-619.1835171465337
 30
0.0
 10
1742.841936830131
 20
-618.8361244680066
 30
0.0
 10
1744.545725011418
 20
-618.7249560604979
 30
0.0
 10
1746.153060933034
 20
-618.9463914442917
 30
0.0
 10
1747.248077145374
 20
-619.2673988907841
 30
0.0
 10
1747.613813565725
 20
-619.5560479347345
 30
0.0
 10
1747.671748852386
 20
-619.6017720250226
 30
0.0
  0
LWPOLYLINE
  5
127
330
1F
100
AcDbEntity
  8
0
  6
Continuous
 62
     1
370
    25
100
AcDbPolyline
 90
      122
 70
   128
 43
0.0
 10
1295.1264844906
 20
-718.9595759825
 10
1302.4960559126
 20
-714.9244352614
 10
1310.0743758986
 20
-711.2098132836
 10
1317.8334770647
 20
-707.8314049
 10
1325.7680417107
 20
-704.7915255029
 10
1333.8726318821
 20
-702.0922584738
 10
1342.1416930978
 20
-699.7354537555
 10
1350.5695581562
 20
-697.7227265842
 10
1359.1504510196
 20
-696.0554563826
 10
1367.8784907727
 20
-694.7347858144
 10
1376.747695653
 20
-693.7616200013
 10
1385.7519871504
 20
-693.1366259024
 10
1394.8851941735
 20
-692.8602318575
 10
1404.1410572782
 20
-692.9326272934
 10
1413.5132329584
 20
-693.3537625937
 10
1422.995297993
 20
-694.1233491334
 10
1432.5807538482
 20
-695.2408594763
 10
1442.2630311315
 20
-696.7055277366
 10
1452.0354940936
 20
-698.5163501039
 10
1461.8914451766
 20
-700.672085531
 10
1471.8241296038
 20
-703.1712565844
 10
1481.8267400096
 20
-706.0121504573
 10
1491.8924211044
 20
-709.1928201428
 10
1502.0142743731
 20
-712.7110857688
 10
1512.1853628032
 20
-716.5645360917
 10
1522.3987156387
 20
-720.7505301493
 10
1532.6473331577
 20
-725.2661990703
 10
1542.9241914698
 20
-730.1084480408
 10
1553.2222473294
 20
-735.2739584252
 10
1563.5344429637
 20
-740.7591900407
 10
1573.8537109087
 20
-746.5603835835
 10
1584.1729788538
 20
-752.6735632055
 10
1594.485174488
 20
-759.0945392385
 10
1604.7832303477
 20
-765.8189110665
 10
1615.0600886597
 20
-772.8420701407
 10
1625.3087061787
 20
-780.1592031389
 10
1635.5220590142
 20
-787.7652952636
 10
1645.6931474443
 20
-795.655133679
 10
1655.8150007131
 20
-803.8233110842
 10
1665.8806818079
 20
-812.2642294183
 10
1675.8832922136
 20
-820.9721036975
 10
1685.8159766409
 20
-829.9409659798
 10
1695.6719277238
 20
-839.164669455
 10
1705.4443906859
 20
-848.6368926573
 10
1715.1266679692
 20
-858.3511437983
 10
1724.7121238245
 20
-868.3007652154
 10
1734.1941888591
 20
-878.478937935
 10
1743.5663645393
 20
-888.8786863461
 10
1752.822227644
 20
-899.4928829804
 10
1761.955434667
 20
-910.3142533979
 10
1770.9597261645
 20
-921.3353811718
 10
1779.8289310447
 20
-932.5487129717
 10
1788.5569707978
 20
-943.94656374
 10
1797.1378636612
 20
-955.5211219591
 10
1805.5657287196
 20
-967.2644550051
 10
1813.8347899353
 20
-979.168514584
 10
1821.9393801068
 20
-991.225142248
 10
1829.8739447527
 20
-1003.4260749868
 10
1837.6330459188
 20
-1015.7629508905
 10
1845.2113659048
 20
-1028.2273148806
 10
1852.6037109087
 20
-1040.8106245047
 10
1859.8050145865
 20
-1053.5042557909
 10
1866.8103415243
 20
-1066.2995091583
 10
1873.614890621
 20
-1079.1876153794
 10
1880.2139983785
 20
-1092.1597415901
 10
1886.603142098
 20
-1105.2069973429
 10
1892.7779429796
 20
-1118.3204407005
 10
1898.7341691231
 20
-1131.4910843639
 10
1904.4677384287
 20
-1144.7099018318
 10
1909.9747213944
 20
-1157.9678335869
 10
1915.2513438091
 20
-1171.2557933052
 10
1920.2939893394
 20
-1184.5646740827
 10
1925.099202008
 20
-1197.8853546774
 10
1929.6636885621
 20
-1211.2087057602
 10
1933.9843207306
 20
-1224.5255961717
 10
1938.058137368
 20
-1237.8268991805
 10
1941.882346484
 20
-1251.1034987379
 10
1945.4543271566
 20
-1264.3462957258
 10
1948.7716313286
 20
-1277.5462141925
 10
1951.8319854856
 20
-1290.6942075733
 10
1954.6332922136
 20
-1303.7812648904
 10
1957.173631637
 20
-1316.7984169283
 10
1959.4512627339
 20
-1329.7367423812
 10
1961.4646245299
 20
-1342.5873739672
 10
1963.2123371673
 20
-1355.3415045053
 10
1964.6932028511
 20
-1367.9903929514
 10
1965.90620667
 20
-1380.5253703894
 10
1966.8505172918
 20
-1392.9378459717
 10
1967.5254875331
 20
-1405.2193128077
 10
1967.930654803
 20
-1417.3613537934
 10
1968.0657414202
 20
-1429.3556473804
 10
1967.930654803
 20
-1441.1939732791
 10
1967.5254875331
 20
-1452.8682180923
 10
1966.8505172918
 20
-1464.3703808756
 10
1965.90620667
 20
-1475.6925786212
 10
1964.6932028511
 20
-1486.8270516604
 10
1963.2123371673
 20
-1497.7661689816
 10
1961.4646245299
 20
-1508.50243346
 10
1959.4512627339
 20
-1519.0284869965
 10
1957.173631637
 20
-1529.3371155595
 10
1954.6332922136
 20
-1539.4212541301
 10
1951.8319854856
 20
-1549.2739915434
 10
1948.7716313286
 20
-1558.8885752254
 10
1945.4543271566
 20
-1568.2584158205
 10
1941.882346484
 20
-1577.3770917082
 10
1938.058137368
 20
-1586.2383534034
 10
1933.9843207306
 20
-1594.83612784
 10
1929.6636885621
 20
-1603.1645225329
 10
1925.099202008
 20
-1611.2178296164
 10
1920.2939893394
 20
-1618.9905297561
 10
1915.2513438091
 20
-1626.4772959315
 10
1909.9747213944
 20
-1633.6729970871
 10
1904.4677384287
 20
-1640.5727016487
 10
1898.7341691231
 20
-1647.1716809036
 10
1892.7779429796
 20
-1653.4654122408
 10
1886.603142098
 20
-1659.4495822515
 10
1880.2139983785
 20
-1665.1200896842
 10
1873.614890621
 20
-1670.4730482566
 10
1866.8103415243
 20
-1675.5047893181
 10
1859.8050145865
 20
-1680.2118643649
 10
1852.6037109087
 20
-1684.5910474027
 10
1852.5811340746
 20
-1684.6040828571
  0
LWPOLYLINE
  5
128
330
1F
100
AcDbEntity
  8
0
  6
Continuous
 62
     1
370
    25
100
AcDbPolyline
 90
      122
 70
   128
 43
0.0
 10
1312.8040337161
 20
-708.7545440348
 10
1320.1737254423
 20
-704.7193338636
 10
1327.7520454283
 20
-701.0047118858
 10
1335.5111465944
 20
-697.6263035022
 10
1343.4457112403
 20
-694.5864241051
 10
1351.5503014118
 20
-691.887157076
 10
1359.8193626275
 20
-689.5303523577
 10
1368.2472276859
 20
-687.5176251864
 10
1376.8281205493
 20
-685.8503549848
 10
1385.5561603024
 20
-684.5296844166
 10
1394.4253651826
 20
-683.5565186035
 10
1403.4296566801
 20
-682.9315245046
 10
1412.5628637031
 20
-682.6551304598
 10
1421.8187268079
 20
-682.7275258956
 10
1431.190902488
 20
-683.1486611959
 10
1440.6729675226
 20
-683.9182477356
 10
1450.2584233779
 20
-685.0357580785
 10
1459.9407006612
 20
-686.5004263388
 10
1469.7131636233
 20
-688.3112487061
 10
1479.5691147062
 20
-690.4669841332
 10
1489.5017991335
 20
-692.9661551866
 10
1499.5044095393
 20
-695.8070490595
 10
1509.570090634
 20
-698.987718745
 10
1519.6919439028
 20
-702.505984371
 10
1529.8630323329
 20
-706.359434694
 10
1540.0763851684
 20
-710.5454287516
 10
1550.3250026874
 20
-715.0610976726
 10
1560.6018609994
 20
-719.903346643
 10
1570.8999168591
 20
-725.0688570274
 10
1581.2121124933
 20
-730.5540886429
 10
1591.5313804384
 20
-736.3552821858
 10
1601.8506483834
 20
-742.4684618077
 10
1612.1628440177
 20
-748.8894378407
 10
1622.4608998774
 20
-755.6138096687
 10
1632.7377581894
 20
-762.636968743
 10
1642.9863757084
 20
-769.9541017411
 10
1653.1997285439
 20
-777.5601938658
 10
1663.370816974
 20
-785.4500322813
 10
1673.4926702427
 20
-793.6182096864
 10
1683.5583513375
 20
-802.0591280205
 10
1693.5609617433
 20
-810.7670022998
 10
1703.4936461705
 20
-819.735864582
 10
1713.3495972535
 20
-828.9595680572
 10
1723.1220602156
 20
-838.4317912596
 10
1732.8043374989
 20
-848.1460424005
 10
1742.3897933541
 20
-858.0956638176
 10
1751.8718583887
 20
-868.2738365372
 10
1761.2440340689
 20
-878.6735849483
 10
1770.4998971736
 20
-889.2877815826
 10
1779.6331041967
 20
-900.1091520001
 10
1788.6373956941
 20
-911.1302797741
 10
1797.5066005744
 20
-922.3436115739
 10
1806.2346403275
 20
-933.7414623422
 10
1814.8155331909
 20
-945.3160205613
 10
1823.2433982493
 20
-957.0593536073
 10
1831.512459465
 20
-968.9634131862
 10
1839.6170496364
 20
-981.0200408502
 10
1847.5516142824
 20
-993.220973589
 10
1855.3107154485
 20
-1005.5578494927
 10
1862.8890354345
 20
-1018.0222134829
 10
1870.2813804384
 20
-1030.6055231069
 10
1877.4826841161
 20
-1043.2991543931
 10
1884.4880110539
 20
-1056.0944077605
 10
1891.2925601506
 20
-1068.9825139816
 10
1897.8916679082
 20
-1081.9546401923
 10
1904.2808116277
 20
-1095.0018959451
 10
1910.4556125092
 20
-1108.1153393027
 10
1916.4118386528
 20
-1121.2859829661
 10
1922.1454079584
 20
-1134.504800434
 10
1927.6523909241
 20
-1147.7627321891
 10
1932.9290133388
 20
-1161.0506919074
 10
1937.9716588691
 20
-1174.3595726849
 10
1942.7768715377
 20
-1187.6802532796
 10
1947.3413580917
 20
-1201.0036043624
 10
1951.6619902602
 20
-1214.3204947739
 10
1955.7358068977
 20
-1227.6217977828
 10
1959.5600160136
 20
-1240.8983973402
 10
1963.1319966862
 20
-1254.141194328
 10
1966.4493008583
 20
-1267.3411127947
 10
1969.5096550153
 20
-1280.4891061756
 10
1972.3109617433
 20
-1293.5761634926
 10
1974.8513011667
 20
-1306.5933155305
 10
1977.1289322636
 20
-1319.5316409834
 10
1979.1422940596
 20
-1332.3822725694
 10
1980.8900066969
 20
-1345.1364031075
 10
1982.3708723807
 20
-1357.7852915537
 10
1983.5838761997
 20
-1370.3202689916
 10
1984.5281868214
 20
-1382.7327445739
 10
1985.2031570627
 20
-1395.0142114099
 10
1985.6083243327
 20
-1407.1562523956
 10
1985.7434109499
 20
-1419.1505459826
 10
1985.6083243327
 20
-1430.9888718814
 10
1985.2031570627
 20
-1442.6631166945
 10
1984.5281868214
 20
-1454.1652794778
 10
1983.5838761997
 20
-1465.4874772234
 10
1982.3708723807
 20
-1476.6219502627
 10
1980.8900066969
 20
-1487.5610675838
 10
1979.1422940596
 20
-1498.2973320623
 10
1977.1289322636
 20
-1508.8233855987
 10
1974.8513011667
 20
-1519.1320141617
 10
1972.3109617433
 20
-1529.2161527323
 10
1969.5096550153
 20
-1539.0688901456
 10
1966.4493008583
 20
-1548.6834738276
 10
1963.1319966862
 20
-1558.0533144227
 10
1959.5600160136
 20
-1567.1719903104
 10
1955.7358068977
 20
-1576.0332520056
 10
1951.6619902602
 20
-1584.6310264422
 10
1947.3413580917
 20
-1592.9594211352
 10
1942.7768715377
 20
-1601.0127282186
 10
1937.9716588691
 20
-1608.7854283583
 10
1932.9290133388
 20
-1616.2721945337
 10
1927.6523909241
 20
-1623.4678956893
 10
1922.1454079584
 20
-1630.367600251
 10
1916.4118386528
 20
-1636.9665795058
 10
1910.4556125092
 20
-1643.2603108431
 10
1904.2808116277
 20
-1649.2444808537
 10
1897.8916679081
 20
-1654.9149882864
 10
1891.2925601506
 20
-1660.2679468588
 10
1884.4880110539
 20
-1665.2996879203
 10
1877.4826841161
 20
-1670.0067629671
 10
1870.2813804384
 20
-1674.3859460049
 10
1870.2587271607
 20
-1674.3990255893
  0
ENDSEC
  0
SECTION
  2
OBJECTS
  0
DICTIONARY
  5
C
330
0
100
AcDbDictionary
281
     1
  3
ACAD_GROUP
350
D
  3
ACAD_LAYOUT
350
1A
  3
ACAD_MLINESTYLE
350
17
  3
ACAD_PLOTSETTINGS
350
19
  3
ACAD_PLOTSTYLENAME
350
E
  3
ACAD_SCALELIST
350
47
  3
DWGPROPS
350
129
  0
DICTIONARY
  5
D
102
{ACAD_REACTORS
330
C
102
}
330
C
100
AcDbDictionary
281
     1
  0
DICTIONARY
  5
1A
102
{ACAD_REACTORS
330
C
102
}
330
C
100
AcDbDictionary
281
     1
  3
Layout1
350
1E
  3
Layout2
350
26
  3
Model
350
22
  0
DICTIONARY
  5
17
102
{ACAD_REACTORS
330
C
102
}
330
C
100
AcDbDictionary
281
     1
  3
Standard
350
18
  0
DICTIONARY
  5
19
102
{ACAD_REACTORS
330
C
102
}
330
C
100
AcDbDictionary
281
     1
  0
ACDBDICTIONARYWDFLT
  5
E
102
{ACAD_REACTORS
330
C
102
}
330
C
100
AcDbDictionary
281
     1
  3
Normal
350
F
100
AcDbDictionaryWithDefault
340
F
  0
DICTIONARY
  5
47
102
{ACAD_REACTORS
330
C
102
}
330
C
100
AcDbDictionary
281
     1
  3
A0
350
48
  3
A1
350
49
  3
A2
350
4A
  3
A3
350
4B
  3
A4
350
4C
  3
A5
350
4D
  3
A6
350
4E
  3
A7
350
4F
  3
A8
350
50
  3
A9
350
51
  3
B0
350
52
  3
B1
350
53
  3
B2
350
54
  3
B3
350
55
  3
B4
350
56
  3
B5
350
57
  3
B6
350
58
  3
B7
350
59
  3
B8
350
5A
  3
B9
350
5B
  3
C0
350
5C
  3
C1
350
5D
  3
C2
350
5E
  3
C3
350
5F
  3
C4
350
60
  3
C5
350
61
  3
C6
350
62
  3
C7
350
63
  3
C8
350
64
  3
C9
350
65
  3
D0
350
66
  3
D1
350
67
  3
D2
350
68
  0
XRECORD
  5
129
102
{ACAD_REACTORS
330
C
102
}
330
C
100
AcDbXrecord
280
     1
  1
DWGPROPS COOKIE
  2

  3

  4

  6

  7

  8
b.kav
  9

300
=
301
=
302
=
303
=
304
=
305
=
306
=
307
=
308
=
309
=
 40
0.0
 41
2459935.585535266
 42
2459935.585535451
  1

 90
        0
  0
LAYOUT
  5
1E
102
{ACAD_REACTORS
330
1A
102
}
330
1A
100
AcDbPlotSettings
  1

  2
none_device
  4

  6

 40
0.0
 41
0.0
 42
0.0
 43
0.0
 44
0.0
 45
0.0
 46
0.0
 47
0.0
 48
0.0
 49
0.0
140
0.0
141
0.0
142
1.0
143
1.0
 70
   688
 72
     1
 73
     0
 74
     5
  7

 75
    16
147
1.0
148
0.0
149
0.0
100
AcDbLayout
  1
Layout1
 70
     1
 71
     1
 10
0.0
 20
0.0
 11
420.0
 21
297.0
 12
0.0
 22
0.0
 32
0.0
 14
1.0000000000E+20
 24
1.0000000000E+20
 34
1.0000000000E+20
 15
-1.0000000000E+20
 25
-1.0000000000E+20
 35
-1.0000000000E+20
146
0.0
 13
0.0
 23
0.0
 33
0.0
 16
1.0
 26
0.0
 36
0.0
 17
0.0
 27
1.0
 37
0.0
 76
     0
330
1B
  0
LAYOUT
  5
26
102
{ACAD_REACTORS
330
1A
102
}
330
1A
100
AcDbPlotSettings
  1

  2
none_device
  4

  6

 40
0.0
 41
0.0
 42
0.0
 43
0.0
 44
0.0
 45
0.0
 46
0.0
 47
0.0
 48
0.0
 49
0.0
140
0.0
141
0.0
142
1.0
143
1.0
 70
   688
 72
     1
 73
     0
 74
     5
  7

 75
    16
147
1.0
148
0.0
149
0.0
100
AcDbLayout
  1
Layout2
 70
     1
 71
     2
 10
0.0
 20
0.0
 11
0.0
 21
0.0
 12
0.0
 22
0.0
 32
0.0
 14
0.0
 24
0.0
 34
0.0
 15
0.0
 25
0.0
 35
0.0
146
0.0
 13
0.0
 23
0.0
 33
0.0
 16
1.0
 26
0.0
 36
0.0
 17
0.0
 27
1.0
 37
0.0
 76
     0
330
23
  0
LAYOUT
  5
22
102
{ACAD_REACTORS
330
1A
102
}
330
1A
100
AcDbPlotSettings
  1

  2
none_device
  4
Letter_(8.50_x_11.00_Inches)
  6

 40
6.35
 41
6.35
 42
6.35000508
 43
6.35000508
 44
215.9
 45
279.4
 46
0.0
 47
0.0
 48
0.0
 49
0.0
140
0.0
141
0.0
142
1.0
143
1.0
 70
  1712
 72
     1
 73
     0
 74
     0
  7

 75
     0
147
1.0
148
0.0
149
0.0
100
AcDbLayout
  1
Model
 70
     1
 71
     0
 10
0.0
 20
0.0
 11
279.4
 21
215.9
 12
0.0
 22
0.0
 32
0.0
 14
0.0
 24
0.0
 34
0.0
 15
279.4
 25
215.9
 35
0.0
146
0.0
 13
0.0
 23
0.0
 33
0.0
 16
1.0
 26
0.0
 36
0.0
 17
0.0
 27
1.0
 37
0.0
 76
     0
330
1F
331
29
  0
MLINESTYLE
  5
18
102
{ACAD_REACTORS
330
17
102
}
330
17
100
AcDbMlineStyle
  2
Standard
 70
     0
  3

 62
   256
 51
90.0
 52
90.0
 71
     2
 49
0.5
 62
   256
  6
BYLAYER
 49
-0.5
 62
   256
  6
BYLAYER
  0
ACDBPLACEHOLDER
  5
F
102
{ACAD_REACTORS
330
E
102
}
330
E
  0
SCALE
  5
48
102
{ACAD_REACTORS
330
47
102
}
330
47
100
AcDbScale
 70
     0
300
1:1
140
1.0
141
1.0
290
     1
  0
SCALE
  5
49
102
{ACAD_REACTORS
330
47
102
}
330
47
100
AcDbScale
 70
     0
300
1:2
140
1.0
141
2.0
290
     0
  0
SCALE
  5
4A
102
{ACAD_REACTORS
330
47
102
}
330
47
100
AcDbScale
 70
     0
300
1:4
140
1.0
141
4.0
290
     0
  0
SCALE
  5
4B
102
{ACAD_REACTORS
330
47
102
}
330
47
100
AcDbScale
 70
     0
300
1:5
140
1.0
141
5.0
290
     0
  0
SCALE
  5
4C
102
{ACAD_REACTORS
330
47
102
}
330
47
100
AcDbScale
 70
     0
300
1:8
140
1.0
141
8.0
290
     0
  0
SCALE
  5
4D
102
{ACAD_REACTORS
330
47
102
}
330
47
100
AcDbScale
 70
     0
300
1:10
140
1.0
141
10.0
290
     0
  0
SCALE
  5
4E
102
{ACAD_REACTORS
330
47
102
}
330
47
100
AcDbScale
 70
     0
300
1:16
140
1.0
141
16.0
290
     0
  0
SCALE
  5
4F
102
{ACAD_REACTORS
330
47
102
}
330
47
100
AcDbScale
 70
     0
300
1:20
140
1.0
141
20.0
290
     0
  0
SCALE
  5
50
102
{ACAD_REACTORS
330
47
102
}
330
47
100
AcDbScale
 70
     0
300
1:30
140
1.0
141
30.0
290
     0
  0
SCALE
  5
51
102
{ACAD_REACTORS
330
47
102
}
330
47
100
AcDbScale
 70
     0
300
1:40
140
1.0
141
40.0
290
     0
  0
SCALE
  5
52
102
{ACAD_REACTORS
330
47
102
}
330
47
100
AcDbScale
 70
     0
300
1:50
140
1.0
141
50.0
290
     0
  0
SCALE
  5
53
102
{ACAD_REACTORS
330
47
102
}
330
47
100
AcDbScale
 70
     0
300
1:100
140
1.0
141
100.0
290
     0
  0
SCALE
  5
54
102
{ACAD_REACTORS
330
47
102
}
330
47
100
AcDbScale
 70
     0
300
2:1
140
2.0
141
1.0
290
     0
  0
SCALE
  5
55
102
{ACAD_REACTORS
330
47
102
}
330
47
100
AcDbScale
 70
     0
300
4:1
140
4.0
141
1.0
290
     0
  0
SCALE
  5
56
102
{ACAD_REACTORS
330
47
102
}
330
47
100
AcDbScale
 70
     0
300
8:1
140
8.0
141
1.0
290
     0
  0
SCALE
  5
57
102
{ACAD_REACTORS
330
47
102
}
330
47
100
AcDbScale
 70
     0
300
10:1
140
10.0
141
1.0
290
     0
  0
SCALE
  5
58
102
{ACAD_REACTORS
330
47
102
}
330
47
100
AcDbScale
 70
     0
300
100:1
140
100.0
141
1.0
290
     0
  0
SCALE
  5
59
102
{ACAD_REACTORS
330
47
102
}
330
47
100
AcDbScale
 70
     0
300
1/128" = 1'-0"
140
0.0078125
141
12.0
290
     0
  0
SCALE
  5
5A
102
{ACAD_REACTORS
330
47
102
}
330
47
100
AcDbScale
 70
     0
300
1/64" = 1'-0"
140
0.015625
141
12.0
290
     0
  0
SCALE
  5
5B
102
{ACAD_REACTORS
330
47
102
}
330
47
100
AcDbScale
 70
     0
300
1/32" = 1'-0"
140
0.03125
141
12.0
290
     0
  0
SCALE
  5
5C
102
{ACAD_REACTORS
330
47
102
}
330
47
100
AcDbScale
 70
     0
300
1/16" = 1'-0"
140
0.0625
141
12.0
290
     0
  0
SCALE
  5
5D
102
{ACAD_REACTORS
330
47
102
}
330
47
100
AcDbScale
 70
     0
300
3/32" = 1'-0"
140
0.09375
141
12.0
290
     0
  0
SCALE
  5
5E
102
{ACAD_REACTORS
330
47
102
}
330
47
100
AcDbScale
 70
     0
300
1/8" = 1'-0"
140
0.125
141
12.0
290
     0
  0
SCALE
  5
5F
102
{ACAD_REACTORS
330
47
102
}
330
47
100
AcDbScale
 70
     0
300
3/16" = 1'-0"
140
0.1875
141
12.0
290
     0
  0
SCALE
  5
60
102
{ACAD_REACTORS
330
47
102
}
330
47
100
AcDbScale
 70
     0
300
1/4" = 1'-0"
140
0.25
141
12.0
290
     0
  0
SCALE
  5
61
102
{ACAD_REACTORS
330
47
102
}
330
47
100
AcDbScale
 70
     0
300
3/8" = 1'-0"
140
0.375
141
12.0
290
     0
  0
SCALE
  5
62
102
{ACAD_REACTORS
330
47
102
}
330
47
100
AcDbScale
 70
     0
300
1/2" = 1'-0"
140
0.5
141
12.0
290
     0
  0
SCALE
  5
63
102
{ACAD_REACTORS
330
47
102
}
330
47
100
AcDbScale
 70
     0
300
3/4" = 1'-0"
140
0.75
141
12.0
290
     0
  0
SCALE
  5
64
102
{ACAD_REACTORS
330
47
102
}
330
47
100
AcDbScale
 70
     0
300
1" = 1'-0"
140
1.0
141
12.0
290
     0
  0
SCALE
  5
65
102
{ACAD_REACTORS
330
47
102
}
330
47
100
AcDbScale
 70
     0
300
1-1/2" = 1'-0"
140
1.5
141
12.0
290
     0
  0
SCALE
  5
66
102
{ACAD_REACTORS
330
47
102
}
330
47
100
AcDbScale
 70
     0
300
3" = 1'-0"
140
3.0
141
12.0
290
     0
  0
SCALE
  5
67
102
{ACAD_REACTORS
330
47
102
}
330
47
100
AcDbScale
 70
     0
300
6" = 1'-0"
140
6.0
141
12.0
290
     0
  0
SCALE
  5
68
102
{ACAD_REACTORS
330
47
102
}
330
47
100
AcDbScale
 70
     0
300
1'-0" = 1'-0"
140
12.0
141
12.0
290
     0
  0
ENDSEC
  0
EOF
